  0
SECTION
  2
HEADER
  9
$ACADVER
  1
AC1024
  9
$ACADMAINTVER
 70
   155
  9
$DWGCODEPAGE
  3
ANSI_1252
  9
$LASTSAVEDBY
  1
Nicole
  9
$INSBASE
 10
0.0
 20
0.0
 30
0.0
  9
$EXTMIN
 10
-101.8226963508332
 20
-24.2935488102956
 30
0.0
  9
$EXTMAX
 10
31.69480714659007
 20
73.91632471252677
 30
0.0
  9
$LIMMIN
 10
0.0
 20
0.0
  9
$LIMMAX
 10
12.0
 20
9.0
  9
$ORTHOMODE
 70
     1
  9
$REGENMODE
 70
     1
  9
$FILLMODE
 70
     1
  9
$QTEXTMODE
 70
     0
  9
$MIRRTEXT
 70
     0
  9
$LTSCALE
 40
1.0
  9
$ATTMODE
 70
     1
  9
$TEXTSIZE
 40
0.2
  9
$TRACEWID
 40
0.05
  9
$TEXTSTYLE
  7
Standard
  9
$CLAYER
  8
2692.004
  9
$CELTYPE
  6
ByLayer
  9
$CECOLOR
 62
   256
  9
$CELTSCALE
 40
1.0
  9
$DISPSILH
 70
     0
  9
$DIMSCALE
 40
1.0
  9
$DIMASZ
 40
0.18
  9
$DIMEXO
 40
0.0625
  9
$DIMDLI
 40
0.38
  9
$DIMRND
 40
0.0
  9
$DIMDLE
 40
0.0
  9
$DIMEXE
 40
0.18
  9
$DIMTP
 40
0.0
  9
$DIMTM
 40
0.0
  9
$DIMTXT
 40
0.18
  9
$DIMCEN
 40
0.09
  9
$DIMTSZ
 40
0.0
  9
$DIMTOL
 70
     0
  9
$DIMLIM
 70
     0
  9
$DIMTIH
 70
     1
  9
$DIMTOH
 70
     1
  9
$DIMSE1
 70
     0
  9
$DIMSE2
 70
     0
  9
$DIMTAD
 70
     0
  9
$DIMZIN
 70
     0
  9
$DIMBLK
  1

  9
$DIMASO
 70
     1
  9
$DIMSHO
 70
     1
  9
$DIMPOST
  1

  9
$DIMAPOST
  1

  9
$DIMALT
 70
     0
  9
$DIMALTD
 70
     2
  9
$DIMALTF
 40
25.4
  9
$DIMLFAC
 40
1.0
  9
$DIMTOFL
 70
     0
  9
$DIMTVP
 40
0.0
  9
$DIMTIX
 70
     0
  9
$DIMSOXD
 70
     0
  9
$DIMSAH
 70
     0
  9
$DIMBLK1
  1

  9
$DIMBLK2
  1

  9
$DIMSTYLE
  2
Standard
  9
$DIMCLRD
 70
     0
  9
$DIMCLRE
 70
     0
  9
$DIMCLRT
 70
     0
  9
$DIMTFAC
 40
1.0
  9
$DIMGAP
 40
0.09
  9
$DIMJUST
 70
     0
  9
$DIMSD1
 70
     0
  9
$DIMSD2
 70
     0
  9
$DIMTOLJ
 70
     1
  9
$DIMTZIN
 70
     0
  9
$DIMALTZ
 70
     0
  9
$DIMALTTZ
 70
     0
  9
$DIMUPT
 70
     0
  9
$DIMDEC
 70
     4
  9
$DIMTDEC
 70
     4
  9
$DIMALTU
 70
     4
  9
$DIMALTTD
 70
     2
  9
$DIMTXSTY
  7
Standard
  9
$DIMAUNIT
 70
     0
  9
$DIMADEC
 70
     0
  9
$DIMALTRND
 40
0.0
  9
$DIMAZIN
 70
     0
  9
$DIMDSEP
 70
    46
  9
$DIMATFIT
 70
     3
  9
$DIMFRAC
 70
     0
  9
$DIMLDRBLK
  1

  9
$DIMLUNIT
 70
     4
  9
$DIMLWD
 70
    -2
  9
$DIMLWE
 70
    -2
  9
$DIMTMOVE
 70
     0
  9
$DIMFXL
 40
1.0
  9
$DIMFXLON
 70
     0
  9
$DIMJOGANG
 40
0.7853981633974483
  9
$DIMTFILL
 70
     0
  9
$DIMTFILLCLR
 70
     0
  9
$DIMARCSYM
 70
     0
  9
$DIMLTYPE
  6

  9
$DIMLTEX1
  6

  9
$DIMLTEX2
  6

  9
$DIMTXTDIRECTION
 70
     0
  9
$LUNITS
 70
     4
  9
$LUPREC
 70
     4
  9
$SKETCHINC
 40
0.1
  9
$FILLETRAD
 40
0.0
  9
$AUNITS
 70
     0
  9
$AUPREC
 70
     0
  9
$MENU
  1
.
  9
$ELEVATION
 40
0.0
  9
$PELEVATION
 40
0.0
  9
$THICKNESS
 40
0.0
  9
$LIMCHECK
 70
     0
  9
$CHAMFERA
 40
0.0
  9
$CHAMFERB
 40
0.0
  9
$CHAMFERC
 40
0.0
  9
$CHAMFERD
 40
0.0
  9
$SKPOLY
 70
     0
  9
$TDCREATE
 40
2458094.654138878
  9
$TDUCREATE
 40
2458094.862472210
  9
$TDUPDATE
 40
2458094.692740787
  9
$TDUUPDATE
 40
2458094.901074121
  9
$TDINDWG
 40
0.0120426505
  9
$TDUSRTIMER
 40
0.0120426505
  9
$USRTIMER
 70
     1
  9
$ANGBASE
 50
0.0
  9
$ANGDIR
 70
     0
  9
$PDMODE
 70
     0
  9
$PDSIZE
 40
0.0
  9
$PLINEWID
 40
0.0
  9
$SPLFRAME
 70
     0
  9
$SPLINETYPE
 70
     6
  9
$SPLINESEGS
 70
     8
  9
$HANDSEED
  5
323
  9
$SURFTAB1
 70
     6
  9
$SURFTAB2
 70
     6
  9
$SURFTYPE
 70
     6
  9
$SURFU
 70
     6
  9
$SURFV
 70
     6
  9
$UCSBASE
  2

  9
$UCSNAME
  2

  9
$UCSORG
 10
0.0
 20
0.0
 30
0.0
  9
$UCSXDIR
 10
1.0
 20
0.0
 30
0.0
  9
$UCSYDIR
 10
0.0
 20
1.0
 30
0.0
  9
$UCSORTHOREF
  2

  9
$UCSORTHOVIEW
 70
     0
  9
$UCSORGTOP
 10
0.0
 20
0.0
 30
0.0
  9
$UCSORGBOTTOM
 10
0.0
 20
0.0
 30
0.0
  9
$UCSORGLEFT
 10
0.0
 20
0.0
 30
0.0
  9
$UCSORGRIGHT
 10
0.0
 20
0.0
 30
0.0
  9
$UCSORGFRONT
 10
0.0
 20
0.0
 30
0.0
  9
$UCSORGBACK
 10
0.0
 20
0.0
 30
0.0
  9
$PUCSBASE
  2

  9
$PUCSNAME
  2

  9
$PUCSORG
 10
0.0
 20
0.0
 30
0.0
  9
$PUCSXDIR
 10
1.0
 20
0.0
 30
0.0
  9
$PUCSYDIR
 10
0.0
 20
1.0
 30
0.0
  9
$PUCSORTHOREF
  2

  9
$PUCSORTHOVIEW
 70
     0
  9
$PUCSORGTOP
 10
0.0
 20
0.0
 30
0.0
  9
$PUCSORGBOTTOM
 10
0.0
 20
0.0
 30
0.0
  9
$PUCSORGLEFT
 10
0.0
 20
0.0
 30
0.0
  9
$PUCSORGRIGHT
 10
0.0
 20
0.0
 30
0.0
  9
$PUCSORGFRONT
 10
0.0
 20
0.0
 30
0.0
  9
$PUCSORGBACK
 10
0.0
 20
0.0
 30
0.0
  9
$USERI1
 70
     0
  9
$USERI2
 70
     0
  9
$USERI3
 70
     0
  9
$USERI4
 70
     0
  9
$USERI5
 70
     0
  9
$USERR1
 40
0.0
  9
$USERR2
 40
0.0
  9
$USERR3
 40
0.0
  9
$USERR4
 40
0.0
  9
$USERR5
 40
0.0
  9
$WORLDVIEW
 70
     1
  9
$SHADEDGE
 70
     3
  9
$SHADEDIF
 70
    70
  9
$TILEMODE
 70
     1
  9
$MAXACTVP
 70
    64
  9
$PINSBASE
 10
0.0
 20
0.0
 30
0.0
  9
$PLIMCHECK
 70
     0
  9
$PEXTMIN
 10
1.000000000000000E+20
 20
1.000000000000000E+20
 30
1.000000000000000E+20
  9
$PEXTMAX
 10
-1.000000000000000E+20
 20
-1.000000000000000E+20
 30
-1.000000000000000E+20
  9
$PLIMMIN
 10
0.0
 20
0.0
  9
$PLIMMAX
 10
12.0
 20
9.0
  9
$UNITMODE
 70
     0
  9
$VISRETAIN
 70
     1
  9
$PLINEGEN
 70
     0
  9
$PSLTSCALE
 70
     1
  9
$TREEDEPTH
 70
  3020
  9
$CMLSTYLE
  2
Standard
  9
$CMLJUST
 70
     0
  9
$CMLSCALE
 40
1.0
  9
$PROXYGRAPHICS
 70
     1
  9
$MEASUREMENT
 70
     0
  9
$CELWEIGHT
370
    -1
  9
$ENDCAPS
280
     0
  9
$JOINSTYLE
280
     0
  9
$LWDISPLAY
290
     0
  9
$INSUNITS
 70
     1
  9
$HYPERLINKBASE
  1

  9
$STYLESHEET
  1

  9
$XEDIT
290
     1
  9
$CEPSNTYPE
380
     0
  9
$PSTYLEMODE
290
     1
  9
$FINGERPRINTGUID
  2
{CC144B64-A740-4BBD-958C-853575484860}
  9
$VERSIONGUID
  2
{4F1CB890-9A83-4E03-B139-0C9FF6387126}
  9
$EXTNAMES
290
     1
  9
$PSVPSCALE
 40
0.0
  9
$OLESTARTUP
290
     0
  9
$SORTENTS
280
   127
  9
$INDEXCTL
280
     0
  9
$HIDETEXT
280
     1
  9
$XCLIPFRAME
280
     2
  9
$HALOGAP
280
     0
  9
$OBSCOLOR
 70
   257
  9
$OBSLTYPE
280
     0
  9
$INTERSECTIONDISPLAY
280
     0
  9
$INTERSECTIONCOLOR
 70
   257
  9
$DIMASSOC
280
     2
  9
$PROJECTNAME
  1

  9
$CAMERADISPLAY
290
     0
  9
$LENSLENGTH
 40
50.0
  9
$CAMERAHEIGHT
 40
0.0
  9
$STEPSPERSEC
 40
2.0
  9
$STEPSIZE
 40
6.0
  9
$3DDWFPREC
 40
2.0
  9
$PSOLWIDTH
 40
0.25
  9
$PSOLHEIGHT
 40
4.0
  9
$LOFTANG1
 40
1.570796326794896
  9
$LOFTANG2
 40
1.570796326794896
  9
$LOFTMAG1
 40
0.0
  9
$LOFTMAG2
 40
0.0
  9
$LOFTPARAM
 70
     7
  9
$LOFTNORMALS
280
     1
  9
$LATITUDE
 40
0.0
  9
$LONGITUDE
 40
0.0
  9
$NORTHDIRECTION
 40
0.0
  9
$TIMEZONE
 70
     0
  9
$LIGHTGLYPHDISPLAY
280
     1
  9
$TILEMODELIGHTSYNCH
280
     1
  9
$CMATERIAL
347
11
  9
$SOLIDHIST
280
     0
  9
$SHOWHIST
280
     1
  9
$DWFFRAME
280
     2
  9
$DGNFRAME
280
     0
  9
$REALWORLDSCALE
290
     1
  9
$INTERFERECOLOR
 62
     1
  9
$INTERFEREOBJVS
345
33
  9
$INTERFEREVPVS
346
30
  9
$CSHADOW
280
     0
  9
$SHADOWPLANELOCATION
 40
0.0
  0
ENDSEC
  0
SECTION
  2
CLASSES
  0
CLASS
  1
ACDBDICTIONARYWDFLT
  2
AcDbDictionaryWithDefault
  3
ObjectDBX Classes
 90
        0
 91
        1
280
     0
281
     0
  0
CLASS
  1
MATERIAL
  2
AcDbMaterial
  3
ObjectDBX Classes
 90
     1153
 91
        3
280
     0
281
     0
  0
CLASS
  1
VISUALSTYLE
  2
AcDbVisualStyle
  3
ObjectDBX Classes
 90
     4095
 91
       24
280
     0
281
     0
  0
CLASS
  1
SCALE
  2
AcDbScale
  3
ObjectDBX Classes
 90
     1153
 91
       17
280
     0
281
     0
  0
CLASS
  1
TABLESTYLE
  2
AcDbTableStyle
  3
ObjectDBX Classes
 90
     4095
 91
        1
280
     0
281
     0
  0
CLASS
  1
MLEADERSTYLE
  2
AcDbMLeaderStyle
  3
ACDB_MLEADERSTYLE_CLASS
 90
     4095
 91
        1
280
     0
281
     0
  0
CLASS
  1
ACDBSECTIONVIEWSTYLE
  2
AcDbSectionViewStyle
  3
ObjectDBX Classes
 90
     1025
 91
        1
280
     0
281
     0
  0
CLASS
  1
ACDBDETAILVIEWSTYLE
  2
AcDbDetailViewStyle
  3
ObjectDBX Classes
 90
     1025
 91
        1
280
     0
281
     0
  0
CLASS
  1
RASTERVARIABLES
  2
AcDbRasterVariables
  3
ISM
 90
        0
 91
        1
280
     0
281
     0
  0
CLASS
  1
DICTIONARYVAR
  2
AcDbDictionaryVar
  3
ObjectDBX Classes
 90
        0
 91
        5
280
     0
281
     0
  0
CLASS
  1
SORTENTSTABLE
  2
AcDbSortentsTable
  3
ObjectDBX Classes
 90
        0
 91
        3
280
     0
281
     0
  0
CLASS
  1
SOLID_BACKGROUND
  2
AcDbSolidBackground
  3
SCENEOE
 90
     4095
 91
        1
280
     0
281
     0
  0
CLASS
  1
NPOCOLLECTION
  2
AcDbImpNonPersistentObjectsCollection
  3
ObjectDBX Classes
 90
     1153
 91
        1
280
     0
281
     0
  0
CLASS
  1
CELLSTYLEMAP
  2
AcDbCellStyleMap
  3
ObjectDBX Classes
 90
     1152
 91
        1
280
     0
281
     0
  0
ENDSEC
  0
SECTION
  2
TABLES
  0
TABLE
  2
VPORT
  5
8
330
0
100
AcDbSymbolTable
 70
     1
  0
VPORT
  5
57
330
8
100
AcDbSymbolTableRecord
100
AcDbViewportTableRecord
  2
*Active
 70
     0
 10
0.0
 20
0.0
 11
1.0
 21
1.0
 12
0.0
 22
0.0
 13
0.0
 23
0.0
 14
1.0
 24
1.0
 15
0.0
 25
0.0
 16
-0.0000000000001208
 26
0.0
 36
553.662610208384
 17
-35.0639446021216
 27
24.81138795111558
 37
0.0
 40
165.7471055480403
 41
2.587837837837837
 42
50.0
 43
0.0
 44
0.0
 50
0.0
 51
0.0
 71
     0
 72
  1000
 73
     1
 74
     1
 75
     0
 76
     0
 77
     0
 78
     0
281
     0
 65
     1
110
0.0
120
0.0
130
0.0
111
1.0
121
0.0
131
0.0
112
0.0
122
1.0
132
0.0
 79
     0
146
0.0
348
2F
 60
     3
 61
     5
292
     1
282
     1
141
0.0
142
0.0
 63
   250
421
  3355443
1001
ACAD_NAV_VCDISPLAY
1070
     3
  0
ENDTAB
  0
TABLE
  2
LTYPE
  5
5
330
0
100
AcDbSymbolTable
 70
     2
  0
LTYPE
  5
5B
330
5
100
AcDbSymbolTableRecord
100
AcDbLinetypeTableRecord
  2
ByBlock
 70
     0
  3

 72
    65
 73
     0
 40
0.0
  0
LTYPE
  5
5C
330
5
100
AcDbSymbolTableRecord
100
AcDbLinetypeTableRecord
  2
ByLayer
 70
     0
  3

 72
    65
 73
     0
 40
0.0
  0
LTYPE
  5
5D
330
5
100
AcDbSymbolTableRecord
100
AcDbLinetypeTableRecord
  2
Continuous
 70
     0
  3
Solid line
 72
    65
 73
     0
 40
0.0
  0
ENDTAB
  0
TABLE
  2
LAYER
  5
2
330
0
100
AcDbSymbolTable
 70
     2
  0
LAYER
  5
54
330
2
100
AcDbSymbolTableRecord
100
AcDbLayerTableRecord
  2
0
 70
     0
 62
     7
  6
Continuous
370
    -3
390
F
347
21
  0
LAYER
  5
8A
330
2
100
AcDbSymbolTableRecord
100
AcDbLayerTableRecord
  2
2692.004
 70
     0
 62
   255
  6
Continuous
370
     9
390
F
347
21
  0
ENDTAB
  0
TABLE
  2
STYLE
  5
3
330
0
100
AcDbSymbolTable
 70
     2
  0
STYLE
  5
55
330
3
100
AcDbSymbolTableRecord
100
AcDbTextStyleTableRecord
  2
Standard
 70
     0
 40
0.0
 41
1.0
 50
0.0
 71
     0
 42
0.2
  3
txt
  4

  0
ENDTAB
  0
TABLE
  2
VIEW
  5
6
330
0
100
AcDbSymbolTable
 70
     0
  0
ENDTAB
  0
TABLE
  2
UCS
  5
7
330
0
100
AcDbSymbolTable
 70
     0
  0
ENDTAB
  0
TABLE
  2
APPID
  5
9
330
0
100
AcDbSymbolTable
 70
     5
  0
APPID
  5
56
330
9
100
AcDbSymbolTableRecord
100
AcDbRegAppTableRecord
  2
ACAD
 70
     0
  0
APPID
  5
5E
330
9
100
AcDbSymbolTableRecord
100
AcDbRegAppTableRecord
  2
AcadAnnotative
 70
     0
  0
APPID
  5
78
330
9
100
AcDbSymbolTableRecord
100
AcDbRegAppTableRecord
  2
REVIT
 70
     0
  0
APPID
  5
109
330
9
100
AcDbSymbolTableRecord
100
AcDbRegAppTableRecord
  2
ACAD_NAV_VCDISPLAY
 70
     0
  0
APPID
  5
202
330
9
100
AcDbSymbolTableRecord
100
AcDbRegAppTableRecord
  2
ACAD_EXEMPT_FROM_CAD_STANDARDS
 70
     0
  0
ENDTAB
  0
TABLE
  2
DIMSTYLE
  5
A
330
0
100
AcDbSymbolTable
 70
     3
100
AcDbDimStyleTable
 71
     1
340
58
  0
DIMSTYLE
105
58
330
A
100
AcDbSymbolTableRecord
100
AcDbDimStyleTableRecord
  2
Standard
 70
     0
340
55
  0
ENDTAB
  0
TABLE
  2
BLOCK_RECORD
  5
1
330
0
100
AcDbSymbolTable
 70
    10
  0
BLOCK_RECORD
  5
70
102
{ACAD_XDICTIONARY
360
C3
102
}
330
1
100
AcDbSymbolTableRecord
100
AcDbBlockTableRecord
  2
*Model_Space
340
73
 70
     0
280
     1
281
     0
  0
BLOCK_RECORD
  5
6C
330
1
100
AcDbSymbolTableRecord
100
AcDbBlockTableRecord
  2
*Paper_Space
340
6F
 70
     0
280
     1
281
     0
  0
BLOCK_RECORD
  5
74
330
1
100
AcDbSymbolTableRecord
100
AcDbBlockTableRecord
  2
*Paper_Space0
340
77
 70
     0
280
     1
281
     0
  0
BLOCK_RECORD
  5
234
330
1
100
AcDbSymbolTableRecord
100
AcDbBlockTableRecord
  2
AMSTD_Estate_2692.004_Side View
340
0
310
2800000020000000200000000100080000000000000400000000000000000000000000000000000000000000000080000080000000808000800000008000800080800000C0C0C000C0DCC000F0CAA6000020400000206000002080000020A0000020C0000020E00000400000004020000040400000406000004080000040A0
310
000040C0000040E00000600000006020000060400000606000006080000060A0000060C0000060E00000800000008020000080400000806000008080000080A0000080C0000080E00000A0000000A0200000A0400000A0600000A0800000A0A00000A0C00000A0E00000C0000000C0200000C0400000C0600000C0800000C0
310
A00000C0C00000C0E00000E0000000E0200000E0400000E0600000E0800000E0A00000E0C00000E0E00040000000400020004000400040006000400080004000A0004000C0004000E00040200000402020004020400040206000402080004020A0004020C0004020E000404000004040200040404000404060004040800040
310
40A0004040C0004040E00040600000406020004060400040606000406080004060A0004060C0004060E00040800000408020004080400040806000408080004080A0004080C0004080E00040A0000040A0200040A0400040A0600040A0800040A0A00040A0C00040A0E00040C0000040C0200040C0400040C0600040C08000
310
40C0A00040C0C00040C0E00040E0000040E0200040E0400040E0600040E0800040E0A00040E0C00040E0E00080000000800020008000400080006000800080008000A0008000C0008000E00080200000802020008020400080206000802080008020A0008020C0008020E00080400000804020008040400080406000804080
310
008040A0008040C0008040E00080600000806020008060400080606000806080008060A0008060C0008060E00080800000808020008080400080806000808080008080A0008080C0008080E00080A0000080A0200080A0400080A0600080A0800080A0A00080A0C00080A0E00080C0000080C0200080C0400080C0600080C0
310
800080C0A00080C0C00080C0E00080E0000080E0200080E0400080E0600080E0800080E0A00080E0C00080E0E000C0000000C0002000C0004000C0006000C0008000C000A000C000C000C000E000C0200000C0202000C0204000C0206000C0208000C020A000C020C000C020E000C0400000C0402000C0404000C0406000C0
310
408000C040A000C040C000C040E000C0600000C0602000C0604000C0606000C0608000C060A000C060C000C060E000C0800000C0802000C0804000C0806000C0808000C080A000C080C000C080E000C0A00000C0A02000C0A04000C0A06000C0A08000C0A0A000C0A0C000C0A0E000C0C00000C0C02000C0C04000C0C06000
310
C0C08000C0C0A000F0FBFF00A4A0A000808080000000FF0000FF000000FFFF00FF000000FF00FF00FFFF0000FFFFFF0049494949494949494949494949494949494949494949494949494949494949494949494949494949494949494949494949494949494949494949494949494949494949494949494949494949494949
310
494949494949494949494949494949494949494949494949494949494949494949494949494949494949494949494949494949494949494949494949494949494949494949494949494949494949494949494949494949494949494949494949494949494949494949494949494949494949FFFFFFFFFFFFFFFFFFFFFFFFFF
310
FFFFFFFFFFFFFFFFFFFFFFFF49494949494949FF4949494949494949494949494949494949494949FF4949FF49494949494949FF494949494949494949494949494949494949494949FF49FF49494949494949FFFFFFFFFFFFFFFFFFFFFFFFFFFFFFFFFFFFFFFFFFFFFFFFFFFF494949494949FF4949494949494949494949
310
49494949494949494949FF4949FF494949494949FF494949494949494949494949494949494949494949FF4949FF494949494949FF49494949494949494949494949494949494949494949FF4949FF4949494949FF49494949494949494949494949494949494949494949FF4949FF4949494949FF49494949494949494949
310
494949494949494949494949FF4949FF4949494949FF49494949494949494949494949494949494949494949FF4949FF4949494949FF49494949494949494949494949494949494949494949FF4949FF4949494949FF4949494949494949494949494949494949494949494949FF4949FF49494949FF494949494949494949
310
4949494949494949494949494949FF4949FF49494949FF4949494949494949494949494949494949494949494949FF4949FF49494949FF4949494949494949494949494949494949494949494949FF4949FF49494949FF4949494949494949494949494949494949494949494949FF4949FF49494949FF4949494949494949
310
49494949494949494949494949494949FF4949FF494949FF494949494949494949494949494949494949494949494949FF4949FF494949FFFFFFFFFFFFFFFFFFFFFFFFFFFFFFFFFFFFFFFFFFFFFFFFFFFFFFFFFFFF4949FFFFFFFFFFFFFFFFFFFFFFFFFFFFFFFFFFFFFFFFFFFFFFFFFFFFFFFFFFFF49494949494949494949
310
49494949494949494949494949494949494949494949494949494949494949494949494949494949494949494949494949494949494949494949494949494949494949494949494949494949494949494949494949494949494949494949494949494949494949494949494949494949494949494949494949494949494949
310
4949494949494949494949494949494949494949494949494949494949494949494949494949494949494949494949494949494949494949
102
{BLKREFS
331
268
102
}
 70
     1
280
     1
281
     1
  0
BLOCK_RECORD
  5
269
330
1
100
AcDbSymbolTableRecord
100
AcDbBlockTableRecord
  2
AMSTD_Estate_2692.004_Plan View
340
0
310
2800000020000000200000000100080000000000000400000000000000000000000000000000000000000000000080000080000000808000800000008000800080800000C0C0C000C0DCC000F0CAA6000020400000206000002080000020A0000020C0000020E00000400000004020000040400000406000004080000040A0
310
000040C0000040E00000600000006020000060400000606000006080000060A0000060C0000060E00000800000008020000080400000806000008080000080A0000080C0000080E00000A0000000A0200000A0400000A0600000A0800000A0A00000A0C00000A0E00000C0000000C0200000C0400000C0600000C0800000C0
310
A00000C0C00000C0E00000E0000000E0200000E0400000E0600000E0800000E0A00000E0C00000E0E00040000000400020004000400040006000400080004000A0004000C0004000E00040200000402020004020400040206000402080004020A0004020C0004020E000404000004040200040404000404060004040800040
310
40A0004040C0004040E00040600000406020004060400040606000406080004060A0004060C0004060E00040800000408020004080400040806000408080004080A0004080C0004080E00040A0000040A0200040A0400040A0600040A0800040A0A00040A0C00040A0E00040C0000040C0200040C0400040C0600040C08000
310
40C0A00040C0C00040C0E00040E0000040E0200040E0400040E0600040E0800040E0A00040E0C00040E0E00080000000800020008000400080006000800080008000A0008000C0008000E00080200000802020008020400080206000802080008020A0008020C0008020E00080400000804020008040400080406000804080
310
008040A0008040C0008040E00080600000806020008060400080606000806080008060A0008060C0008060E00080800000808020008080400080806000808080008080A0008080C0008080E00080A0000080A0200080A0400080A0600080A0800080A0A00080A0C00080A0E00080C0000080C0200080C0400080C0600080C0
310
800080C0A00080C0C00080C0E00080E0000080E0200080E0400080E0600080E0800080E0A00080E0C00080E0E000C0000000C0002000C0004000C0006000C0008000C000A000C000C000C000E000C0200000C0202000C0204000C0206000C0208000C020A000C020C000C020E000C0400000C0402000C0404000C0406000C0
310
408000C040A000C040C000C040E000C0600000C0602000C0604000C0606000C0608000C060A000C060C000C060E000C0800000C0802000C0804000C0806000C0808000C080A000C080C000C080E000C0A00000C0A02000C0A04000C0A06000C0A08000C0A0A000C0A0C000C0A0E000C0C00000C0C02000C0C04000C0C06000
310
C0C08000C0C0A000F0FBFF00A4A0A000808080000000FF0000FF000000FFFF00FF000000FF00FF00FFFF0000FFFFFF0049494949494949494949494949494949494949494949494949494949494949494949494949494949494949494949494949494949494949494949494949494949494949494949494949494949494949
310
49494949494949494949494949494949494949494949494949494949494949494949494949494949494949494949494949494949494949494949494949494949494949494949494949494949494949494949494949494949494949494949494949494949494949494949494949494949494949494949494949494949494949
310
49494949494949494949494949494949494949494949494949494949494949494949494949494949494949494949494949494949494949494949494949FFFFFFFFFFFFFFFFFFFF494949494949494949494949494949494949FFFFFFFFFFFFFFFFFFFFFFFFFFFFFFFFFFFF4949494949494949FFFFFFFFFFFFFFFFFFFFFFFF
310
FFFFFFFFFFFFFFFFFFFFFFFFFFFFFFFFFFFF4949FFFF49FFFFFFFFFFFFFF49494949FFFFFF4949FFFFFFFFFFFFFFFF49FFFF4949FFFFFFFFFFFFFFFFFFFFFFFFFFFF494949FFFFFFFFFFFFFFFFFFFFFFFFFF4949FFFFFF494949FF49494949494949494949494949494949FF494949FFFFFF4949FFFFFF494949FF49494949
310
494949494949494949494949FF494949FFFFFF4949FFFFFF494949FF49494949494949FFFF49494949494949FF494949FFFFFF4949FFFFFF494949FF49494949494949FFFF49494949494949FF494949FFFFFF4949FFFFFF494949FF49494949494949494949494949494949FF494949FFFFFF4949FFFFFF494949FF494949
310
49494949494949494949494949FF494949FFFFFF4949FFFFFF494949FFFFFFFFFFFFFFFFFFFFFFFFFFFFFFFFFFFF494949FFFFFF4949FFFFFF494949494949494949494949494949494949494949494949FFFFFF4949FFFFFFFFFFFFFFFFFFFFFFFFFFFFFFFFFFFFFFFFFFFFFFFFFFFFFFFFFFFF4949FFFF49494949494949
310
49494949494949494949494949494949494949FFFF4949FFFFFFFFFFFFFFFFFFFFFFFFFFFFFFFFFFFFFFFFFFFFFFFFFFFFFFFFFFFF4949494949494949494949494949494949494949494949494949494949494949494949494949494949494949494949494949494949494949494949494949494949494949494949494949
310
49494949494949494949494949494949494949494949494949494949494949494949494949494949494949494949494949494949494949494949494949494949494949494949494949494949494949494949494949494949494949494949494949494949494949494949494949494949494949494949494949494949494949
310
4949494949494949494949494949494949494949494949494949494949494949494949494949494949494949494949494949494949494949
102
{BLKREFS
331
2A3
102
}
 70
     1
280
     1
281
     1
  0
BLOCK_RECORD
  5
2A4
330
1
100
AcDbSymbolTableRecord
100
AcDbBlockTableRecord
  2
AMSTD_Estate_2692.004_Front View
340
0
310
2800000020000000200000000100080000000000000400000000000000000000000000000000000000000000000080000080000000808000800000008000800080800000C0C0C000C0DCC000F0CAA6000020400000206000002080000020A0000020C0000020E00000400000004020000040400000406000004080000040A0
310
000040C0000040E00000600000006020000060400000606000006080000060A0000060C0000060E00000800000008020000080400000806000008080000080A0000080C0000080E00000A0000000A0200000A0400000A0600000A0800000A0A00000A0C00000A0E00000C0000000C0200000C0400000C0600000C0800000C0
310
A00000C0C00000C0E00000E0000000E0200000E0400000E0600000E0800000E0A00000E0C00000E0E00040000000400020004000400040006000400080004000A0004000C0004000E00040200000402020004020400040206000402080004020A0004020C0004020E000404000004040200040404000404060004040800040
310
40A0004040C0004040E00040600000406020004060400040606000406080004060A0004060C0004060E00040800000408020004080400040806000408080004080A0004080C0004080E00040A0000040A0200040A0400040A0600040A0800040A0A00040A0C00040A0E00040C0000040C0200040C0400040C0600040C08000
310
40C0A00040C0C00040C0E00040E0000040E0200040E0400040E0600040E0800040E0A00040E0C00040E0E00080000000800020008000400080006000800080008000A0008000C0008000E00080200000802020008020400080206000802080008020A0008020C0008020E00080400000804020008040400080406000804080
310
008040A0008040C0008040E00080600000806020008060400080606000806080008060A0008060C0008060E00080800000808020008080400080806000808080008080A0008080C0008080E00080A0000080A0200080A0400080A0600080A0800080A0A00080A0C00080A0E00080C0000080C0200080C0400080C0600080C0
310
800080C0A00080C0C00080C0E00080E0000080E0200080E0400080E0600080E0800080E0A00080E0C00080E0E000C0000000C0002000C0004000C0006000C0008000C000A000C000C000C000E000C0200000C0202000C0204000C0206000C0208000C020A000C020C000C020E000C0400000C0402000C0404000C0406000C0
310
408000C040A000C040C000C040E000C0600000C0602000C0604000C0606000C0608000C060A000C060C000C060E000C0800000C0802000C0804000C0806000C0808000C080A000C080C000C080E000C0A00000C0A02000C0A04000C0A06000C0A08000C0A0A000C0A0C000C0A0E000C0C00000C0C02000C0C04000C0C06000
310
C0C08000C0C0A000F0FBFF00A4A0A000808080000000FF0000FF000000FFFF00FF000000FF00FF00FFFF0000FFFFFF0049494949494949494949494949494949494949494949494949494949494949494949494949494949494949494949494949494949494949494949494949494949494949494949494949494949494949
310
49494949494949494949494949494949494949494949494949494949494949494949494949494949494949494949494949494949494949494949494949494949494949494949494949494949494949494949494949494949494949494949494949494949494949494949494949494949494949494949494949494949494949
310
49494949494949494949494949494949494949494949494949494949494949494949494949494949494949494949494949494949494949494949494949494949494949494949494949494949494949494949494949494949494949494949494949494949494949494949494949494949494949494949494949494949494949
310
494949494949494949494949494949494949494949494949FFFFFFFFFFFFFFFFFFFFFFFFFFFFFFFFFFFFFFFFFFFF494949494949494949FFFFFFFFFFFFFFFFFFFFFFFFFFFFFFFFFFFFFFFFFFFFFFFF4949494949494949FF49494949494949494949494949494949494949494949FF4949494949494949FF49494949494949
310
49494949494949494949494949494949FF494949494949FF494949494949494949494949494949494949494949494949FF494949494949FF494949494949494949494949494949494949494949494949FF494949494949FF494949494949494949494949494949494949494949494949FF494949494949FF49494949494949
310
494949494949494949494949494949494949FF49494949FF4949494949494949494949494949494949494949494949494949FF494949FFFFFFFFFFFFFFFFFFFFFFFFFFFFFFFFFFFFFFFFFFFFFFFFFFFFFFFFFFFF49494949494949494949494949494949494949494949494949494949494949494949494949494949494949
310
49494949494949494949494949494949494949494949494949494949494949494949494949494949494949494949494949494949494949494949494949494949494949494949494949494949494949494949494949494949494949494949494949494949494949494949494949494949494949494949494949494949494949
310
49494949494949494949494949494949494949494949494949494949494949494949494949494949494949494949494949494949494949494949494949494949494949494949494949494949494949494949494949494949494949494949494949494949494949494949494949494949494949494949494949494949494949
310
4949494949494949494949494949494949494949494949494949494949494949494949494949494949494949494949494949494949494949
102
{BLKREFS
331
2E8
102
}
 70
     1
280
     1
281
     1
  0
ENDTAB
  0
ENDSEC
  0
SECTION
  2
BLOCKS
  0
BLOCK
  5
71
330
70
100
AcDbEntity
  8
0
100
AcDbBlockBegin
  2
*Model_Space
 70
     0
 10
0.0
 20
0.0
 30
0.0
  3
*Model_Space
  1

  0
ENDBLK
  5
72
330
70
100
AcDbEntity
  8
0
100
AcDbBlockEnd
  0
BLOCK
  5
6D
330
6C
100
AcDbEntity
 67
     1
  8
0
100
AcDbBlockBegin
  2
*Paper_Space
 70
     0
 10
0.0
 20
0.0
 30
0.0
  3
*Paper_Space
  1

  0
ENDBLK
  5
6E
330
6C
100
AcDbEntity
 67
     1
  8
0
100
AcDbBlockEnd
  0
BLOCK
  5
75
330
74
100
AcDbEntity
 67
     1
  8
0
100
AcDbBlockBegin
  2
*Paper_Space0
 70
     0
 10
0.0
 20
0.0
 30
0.0
  3
*Paper_Space0
  1

  0
ENDBLK
  5
76
330
74
100
AcDbEntity
 67
     1
  8
0
100
AcDbBlockEnd
  0
BLOCK
  5
235
330
234
100
AcDbEntity
  8
0
100
AcDbBlockBegin
  2
AMSTD_Estate_2692.004_Side View
 70
     0
 10
0.0
 20
0.0
 30
0.0
  3
AMSTD_Estate_2692.004_Side View
  1

  0
LINE
  5
237
330
234
100
AcDbEntity
  8
2692.004
100
AcDbLine
 10
30.10764118878652
 20
0.4564221286261727
 30
0.0
 11
30.34222219354698
 21
3.137695282272375
 31
0.0
1001
REVIT
1002
{
1070
     2
1000
-2001160
1002
}
  0
LWPOLYLINE
  5
238
330
234
100
AcDbEntity
  8
2692.004
100
AcDbPolyline
 90
       36
 70
   128
 43
0.0
 10
30.79673732754268
 20
3.507730857471702
 10
30.79446316158368
 20
3.497993566443458
 10
30.79180142692989
 20
3.488355006591973
 10
30.78875638178897
 20
3.4788305975569
 10
30.78533289758353
 20
3.469435576360925
 10
30.78153645115798
 20
3.460184973033801
 10
30.77737311601678
 20
3.451093586567491
 10
30.77284955260803
 20
3.442175961240952
 10
30.76797299766813
 20
3.433446363352377
 10
30.76275125264479
 20
3.424918758396181
 10
30.75719267121612
 20
3.416606788721157
 10
30.75130614592662
 20
3.408523751705669
 10
30.74510109396101
 20
3.400682578484641
 10
30.73858744207881
 20
3.393095813262547
 10
30.73177561073349
 20
3.385775593245313
 10
30.72467649740211
 20
3.3787336292234
 10
30.7173014591516
 20
3.371981186837039
 10
30.70966229446987
 20
3.365529068553605
 10
30.70177122439087
 20
3.359387596385971
 10
30.69364087294332
 20
3.353566595379497
 10
30.68528424695522
 20
3.348075377894044
 10
30.67671471524545
 20
3.342922728706192
 10
30.66794598723672
 20
3.338116890955465
 10
30.65899209102321
 20
3.333665552957082
 10
30.64986735092887
 20
3.329575835902264
 10
30.64058636459132
 20
3.325854282465879
 10
30.63116397960886
 20
3.322506846339528
 10
30.62161526978746
 20
3.31953888270694
 10
30.61195551102589
 20
3.316955139676789
 10
30.6022001568775
 20
3.314759750686761
 10
30.59236481382793
 20
3.312956227890907
 10
30.58246521632798
 20
3.311547456540974
 10
30.57251720162178
 20
3.310535690370603
 10
30.56253668441082
 20
3.309922547989824
 10
30.5525396313935
 20
3.309709010295659
 10
30.55220042735935
 20
3.309708780176801
1001
REVIT
1002
{
1070
     2
1000
-2001160
1002
}
  0
LWPOLYLINE
  5
239
330
234
100
AcDbEntity
  8
2692.004
100
AcDbPolyline
 90
        9
 70
   128
 43
0.0
 10
27.35407120717559
 20
3.309708780176801
 10
28.18247263496447
 20
3.309708780176801
 10
28.88852120451334
 20
3.309708780176801
 10
29.4710873887266
 20
3.309708780176801
 10
29.92923920598367
 20
3.309708780176801
 10
30.26224371111076
 20
3.309708780176801
 10
30.46956816793684
 20
3.309708780176801
 10
30.55088090155786
 20
3.309708780176801
 10
30.55220042735935
 20
3.309708780176801
1001
REVIT
1002
{
1070
     2
1000
-2001160
1002
}
  0
LINE
  5
23A
330
234
100
AcDbEntity
  8
2692.004
100
AcDbLine
 10
30.55220042735935
 20
3.309708780176801
 30
0.0
 11
30.53981196358908
 21
3.309708780176801
 31
0.0
1001
REVIT
1002
{
1070
     2
1000
-2001160
1002
}
  0
LWPOLYLINE
  5
23B
330
234
100
AcDbEntity
  8
2692.004
100
AcDbPolyline
 90
        3
 70
   128
 43
0.0
 10
27.18191523876678
 20
3.309708780176801
 10
27.17191790522013
 20
3.309908753511557
 10
27.16957294746322
 20
3.310013630353306
1001
REVIT
1002
{
1070
     2
1000
-2001160
1002
}
  0
LWPOLYLINE
  5
23C
330
234
100
AcDbEntity
  8
2692.004
100
AcDbPolyline
 90
        9
 70
   128
 43
0.0
 10
27.35407120717531
 20
3.309708780176801
 10
27.30947818412548
 20
3.309708780176801
 10
27.27147144116242
 20
3.309708780176801
 10
27.24011178096723
 20
3.309708780176801
 10
27.2154493723065
 20
3.309708780176801
 10
27.19752366977305
 20
3.309708780176801
 10
27.186363350667
 20
3.309708780176801
 10
27.18198626911814
 20
3.309708780176801
 10
27.18191523876678
 20
3.309708780176801
1001
REVIT
1002
{
1070
     2
1000
-2001160
1002
}
  0
LINE
  5
23D
330
234
100
AcDbEntity
  8
2692.004
100
AcDbLine
 10
26.69742423815679
 20
0.0
 30
0.0
 11
26.98698623599448
 21
3.309708780176801
 31
0.0
1001
REVIT
1002
{
1070
     2
1000
-2001160
1002
}
  0
LWPOLYLINE
  5
23E
330
234
100
AcDbEntity
  8
2692.004
100
AcDbPolyline
 90
       41
 70
   128
 43
0.0
 10
25.92645213895024
 20
3.309708780176801
 10
25.97665727240778
 20
3.309708780176801
 10
26.02678208836166
 20
3.309708780176801
 10
26.07674639779906
 20
3.309708780176801
 10
26.12647026848338
 20
3.309708780176801
 10
26.17587415282868
 20
3.309708780176801
 10
26.22487901515898
 20
3.309708780176801
 10
26.27340645814836
 20
3.309708780176801
 10
26.32137884823997
 20
3.309708780176801
 10
26.36871943984328
 20
3.309708780176801
 10
26.41535249811048
 20
3.309708780176801
 10
26.4612034200962
 20
3.309708780176801
 10
26.50619885410627
 20
3.309708780176801
 10
26.5502668170448
 20
3.309708780176801
 10
26.59333680957175
 20
3.309708780176801
 10
26.63533992888685
 20
3.309708780176801
 10
26.67620897895938
 20
3.309708780176801
 10
26.71587857802748
 20
3.309708780176801
 10
26.75428526319506
 20
3.309708780176801
 10
26.79136759195882
 20
3.309708780176801
 10
26.82706624050323
 20
3.309708780176801
 10
26.8613240986059
 20
3.309708780176801
 10
26.89408636100186
 20
3.309708780176801
 10
26.92530061506015
 20
3.309708780176801
 10
26.95491692463298
 20
3.309708780176801
 10
26.98288790994283
 20
3.309708780176801
 10
27.00916882338005
 20
3.309708780176801
 10
27.03371762108941
 20
3.309708780176801
 10
27.05649503023139
 20
3.309708780176801
 10
27.07746461181029
 20
3.309708780176801
 10
27.09659281896883
 20
3.309708780176801
 10
27.11384905065604
 20
3.309708780176801
 10
27.12920570058236
 20
3.309708780176801
 10
27.14263820138381
 20
3.309708780176801
 10
27.15412506392454
 20
3.309708780176801
 10
27.16364791167493
 20
3.309708780176801
 10
27.17119151010996
 20
3.309708780176801
 10
27.17674379108138
 20
3.309708780176801
 10
27.18029587212405
 20
3.309708780176801
 10
27.18184207066604
 20
3.309708780176801
 10
27.18191523876678
 20
3.309708780176801
1001
REVIT
1002
{
1070
     2
1000
-2001160
1002
}
  0
LINE
  5
23F
330
234
100
AcDbEntity
  8
2692.004
100
AcDbLine
 10
0.0
 20
3.309708780176801
 30
0.0
 11
25.92645213895024
 21
3.309708780176801
 31
0.0
1001
REVIT
1002
{
1070
     2
1000
-2001160
1002
}
  0
LWPOLYLINE
  5
240
330
234
100
AcDbEntity
  8
2692.004
100
AcDbPolyline
 90
       39
 70
   128
 43
0.0
 10
30.10764118878653
 20
0.4564221286261727
 10
30.10550011397334
 20
0.4365384049267398
 10
30.10256561491973
 20
0.4167562062416721
 10
30.0988423861982
 20
0.3971071798688932
 10
30.09433638418045
 20
0.3776227600590261
 10
30.08905481750853
 20
0.3583341177273063
 10
30.08300613556239
 20
0.3392721105867835
 10
30.0762000149428
 20
0.3204672337825336
 10
30.06864734399093
 20
0.3019495711059577
 10
30.06036020536912
 20
0.2837487468670972
 10
30.05135185673132
 20
0.2658938785021085
 10
30.04163670951368
 20
0.2484135299915486
 10
30.03123030587929
 20
0.2313356661640817
 10
30.02014929385409
 20
0.2146876079587514
 10
30.00841140069346
 20
0.198495988717287
 10
29.99603540452249
 20
0.1827867115764512
 10
29.98304110429504
 20
0.1675849080285374
 10
29.96944928811945
 20
0.1529148977163359
 10
29.95528170000219
 20
0.1388001495269151
 10
29.94056100506199
 20
0.1252632440463905
 10
29.92531075327049
 20
0.1123258374358222
 10
29.90955534177738
 20
0.1000086267859395
 10
29.89331997588003
 20
0.0883313170062614
 10
29.87663062870057
 20
0.0773125893013997
 10
29.85951399963422
 20
0.0669700712851551
 10
29.84199747163618
 20
0.0573203087800636
 10
29.82410906741457
 20
0.0483787393476192
 10
29.80587740460014
 20
0.0401596675914924
 10
29.78733164996422
 20
0.0326762422731868
 10
29.76850147275796
 20
0.0259404352768122
 10
29.74941699724804
 20
0.0199630224566896
 10
29.73010875452413
 20
0.014753566398209
 10
29.71060763365569
 20
0.010320401119774
 10
29.69094483227613
 20
0.0066706187401344
 10
29.67115180667312
 20
0.003810058132526
 10
29.65126022146535
 20
0.0017432955836902
 10
29.63130189894584
 20
0.0004736374728296
 10
29.61130876817309
 20
0.0000031149820714
 10
29.60954383974065
 20
0.0
1001
REVIT
1002
{
1070
     2
1000
-2001160
1002
}
  0
LWPOLYLINE
  5
241
330
234
100
AcDbEntity
  8
2692.004
100
AcDbPolyline
 90
        9
 70
   128
 43
0.0
 10
26.23925865114832
 20
0.0
 10
27.26814612283013
 20
0.0
 10
27.96575388777049
 20
0.0
 10
28.54135549823552
 20
0.0
 10
28.9940301144369
 20
0.0
 10
29.32305355355413
 20
0.0
 10
29.52789944827259
 20
0.0
 10
29.60824008885882
 20
0.0
 10
29.60954383974065
 20
0.0
1001
REVIT
1002
{
1070
     2
1000
-2001160
1002
}
  0
LWPOLYLINE
  5
242
330
234
100
AcDbEntity
  8
2692.004
100
AcDbPolyline
 90
        9
 70
   128
 43
0.0
 10
29.60954383974065
 20
0.0
 10
29.54722590586964
 20
0.0
 10
29.360371799657
 20
0.0
 10
29.04928044781263
 20
0.0
 10
28.61444953013684
 20
0.0
 10
28.05657468333891
 20
0.0
 10
27.3765483881668
 20
0.0
 10
26.57545854162822
 20
0.0
 10
26.23925865114806
 20
0.0
1001
REVIT
1002
{
1070
     2
1000
-2001160
1002
}
  0
LWPOLYLINE
  5
243
330
234
100
AcDbEntity
  8
2692.004
100
AcDbPolyline
 90
       38
 70
   128
 43
0.0
 10
30.51657253402117
 20
3.309708780176801
 10
30.51542047303243
 20
3.309639573449466
 10
30.50789781532542
 20
3.308884790055227
 10
30.50041135822761
 20
3.307829784334177
 10
30.49297307847331
 20
3.306476244070417
 10
30.48559487572337
 20
3.304826334639631
 10
30.4782885535283
 20
3.302882695544944
 10
30.47106580044495
 20
3.300648436194286
 10
30.46393817133753
 20
3.298127130926008
 10
30.45691706889211
 20
3.295322813290681
 10
30.45001372537486
 20
3.292239969598306
 10
30.44323918466276
 20
3.288883531741142
 10
30.4366042845758
 20
3.28525886930377
 10
30.43011963953873
 20
3.281371780972865
 10
30.42379562360034
 20
3.277228485260561
 10
30.41764235383702
 20
3.272835610556128
 10
30.4116696741678
 20
3.268200184522008
 10
30.40588713960605
 20
3.263329622851017
 10
30.40030400097351
 20
3.258231717402825
 10
30.394929190101
 20
3.252914623738661
 10
30.38977130553934
 20
3.247386848074125
 10
30.38483859880353
 20
3.241657233671094
 10
30.38013896117212
 20
3.235734946690353
 10
30.37567991106276
 20
3.229629461527721
 10
30.37146858200441
 20
3.223350545657027
 10
30.36751171122523
 20
3.216908244004233
 10
30.36381562887435
 20
3.210312862877692
 10
30.36038624789507
 20
3.203574953480273
 10
30.35722905456541
 20
3.196705295029666
 10
30.35434909972119
 20
3.189714877513946
 10
30.3517509906758
 20
3.182614884109923
 10
30.34943888384949
 20
3.175416673292463
 10
30.34741647811997
 20
3.168131760663335
 10
30.34568700890495
 20
3.160771800528717
 10
30.34425324298627
 20
3.153348567254777
 10
30.34311747408353
 20
3.145873936431225
 10
30.34228151918469
 20
3.138359865872867
 10
30.34222219354698
 20
3.137695282272378
1001
REVIT
1002
{
1070
     2
1000
-2001160
1002
}
  0
LWPOLYLINE
  5
244
330
234
100
AcDbEntity
  8
2692.004
100
AcDbPolyline
 90
        3
 70
   128
 43
0.0
 10
27.16957294746322
 20
3.310013630353306
 10
27.16201578394584
 20
3.310235793626819
 10
27.16024102443066
 20
3.310244125511264
1001
REVIT
1002
{
1070
     2
1000
-2001160
1002
}
  0
LWPOLYLINE
  5
245
330
234
100
AcDbEntity
  8
2692.004
100
AcDbPolyline
 90
       41
 70
   128
 43
0.0
 10
25.92645213895023
 20
0.0
 10
25.93896106310227
 20
0.0
 10
25.95144997564408
 20
0.0
 10
25.96389889697979
 20
0.0
 10
25.97628791149084
 20
0.0
 10
25.98859719939691
 20
0.0
 10
26.00080706846316
 20
0.0
 10
26.01289798550374
 20
0.0
 10
26.02485060763063
 20
0.0
 10
26.03664581319818
 20
0.0
 10
26.04826473239366
 20
0.0
 10
26.05968877742494
 20
0.0
 10
26.07089967225696
 20
0.0
 10
26.08187948184951
 20
0.0
 10
26.0926106408495
 20
0.0
 10
26.10307598169169
 20
0.0
 10
26.11325876206326
 20
0.0
 10
26.12314269168777
 20
0.0
 10
26.13271195838634
 20
0.0
 10
26.14195125337355
 20
0.0
 10
26.15084579574838
 20
0.0
 10
26.15938135614044
 20
0.0
 10
26.16754427947389
 20
0.0
 10
26.17532150681275
 20
0.0
 10
26.18270059625235
 20
0.0
 10
26.18966974282367
 20
0.0
 10
26.19621779737889
 20
0.0
 10
26.20233428442757
 20
0.0
 10
26.20800941889519
 20
0.0
 10
26.21323412177726
 20
0.0
 10
26.21800003466371
 20
0.0
 10
26.22229953311056
 20
0.0
 10
26.22612573883751
 20
0.0
 10
26.2294725307316
 20
0.0
 10
26.23233455463975
 20
0.0
 10
26.23470723193421
 20
0.0
 10
26.23658676683751
 20
0.0
 10
26.23797015249468
 20
0.0
 10
26.23885517578383
 20
0.0
 10
26.23924042085648
 20
0.0
 10
26.23925865114806
 20
0.0
1001
REVIT
1002
{
1070
     2
1000
-2001160
1002
}
  0
LINE
  5
246
330
234
100
AcDbEntity
  8
2692.004
100
AcDbLine
 10
0.0
 20
0.0
 30
0.0
 11
25.92645213895023
 21
0.0
 31
0.0
1001
REVIT
1002
{
1070
     2
1000
-2001160
1002
}
  0
LINE
  5
247
330
234
100
AcDbEntity
  8
2692.004
100
AcDbLine
 10
30.24999999999975
 20
23.99999999999909
 30
0.0
 11
0.4999651677550077
 21
23.99999999999909
 31
0.0
1001
REVIT
1002
{
1070
     2
1000
-2001160
1002
}
  0
LWPOLYLINE
  5
248
330
234
100
AcDbEntity
  8
2692.004
100
AcDbPolyline
 90
       41
 70
   128
 43
0.0
 10
31.24999999999975
 20
23.99999999999908
 10
31.24920010666074
 20
23.99999999999908
 10
31.24680170630237
 20
23.99999999999908
 10
31.24280863585362
 20
23.99999999999908
 10
31.23722728337538
 20
23.99999999999908
 10
31.230066577841
 20
23.99999999999908
 10
31.22133797485179
 20
23.99999999999908
 10
31.21105543831053
 20
23.99999999999908
 10
31.1992354180822
 20
23.99999999999908
 10
31.18589682367769
 20
23.99999999999908
 10
31.17106099400265
 20
23.99999999999908
 10
31.15475166321973
 20
23.99999999999908
 10
31.13699492277904
 20
23.99999999999908
 10
31.11781917967741
 20
23.99999999999908
 10
31.09725511101317
 20
23.99999999999908
 10
31.07533561490942
 20
23.99999999999908
 10
31.05209575788405
 20
23.99999999999908
 10
31.02757271875069
 20
23.99999999999908
 10
31.00180572914066
 20
23.99999999999908
 10
30.97483601074066
 20
23.99999999999908
 10
30.94670670934693
 20
23.99999999999908
 10
30.91746282584106
 20
23.99999999999908
 10
30.88715114419834
 20
23.99999999999908
 10
30.85582015664322
 20
23.99999999999908
 10
30.82351998607221
 20
23.99999999999908
 10
30.7903023058679
 20
23.99999999999908
 10
30.75622025723254
 20
23.99999999999908
 10
30.7213283641735
 20
23.99999999999908
 10
30.68568244627647
 20
23.99999999999908
 10
30.64933952940604
 20
23.99999999999908
 10
30.61235775447644
 20
23.99999999999908
 10
30.57479628443854
 20
23.99999999999908
 10
30.53671520963173
 20
23.99999999999908
 10
30.49817545165213
 20
23.99999999999908
 10
30.45923866589118
 20
23.99999999999908
 10
30.41996714289999
 20
23.99999999999908
 10
30.38042370873791
 20
23.99999999999908
 10
30.34067162446407
 20
23.99999999999908
 10
30.30077448493334
 20
23.99999999999908
 10
30.26079611705802
 20
23.99999999999908
 10
30.24999999999975
 20
23.99999999999908
1001
REVIT
1002
{
1070
     2
1000
-2001160
1002
}
  0
LINE
  5
249
330
234
100
AcDbEntity
  8
2692.004
100
AcDbLine
 10
31.19783499744166
 20
23.99724271305425
 30
0.0
 11
31.21621871242368
 21
23.99885751934675
 31
0.0
1001
REVIT
1002
{
1070
     2
1000
-2001160
1002
}
  0
LINE
  5
24A
330
234
100
AcDbEntity
  8
2692.004
100
AcDbLine
 10
31.2361947139033
 20
23.99980937773803
 30
0.0
 11
31.24999999999976
 21
23.99999999999908
 31
0.0
1001
REVIT
1002
{
1070
     2
1000
-2001160
1002
}
  0
LWPOLYLINE
  5
24B
330
234
100
AcDbEntity
  8
2692.004
100
AcDbPolyline
 90
        9
 70
   128
 43
0.0
 10
31.24999999999976
 20
23.99999999999908
 10
31.2515997866778
 20
23.99999999999908
 10
31.25639658739452
 20
23.99999999999908
 10
31.26438272829202
 20
23.99999999999908
 10
31.27554543324851
 20
23.99999999999908
 10
31.28986684431728
 20
23.99999999999908
 10
31.30732405029571
 20
23.99999999999908
 10
31.32788912337821
 20
23.99999999999908
 10
31.33304588379343
 20
23.99999999999908
1001
REVIT
1002
{
1070
     2
1000
-2001160
1002
}
  0
LWPOLYLINE
  5
24C
330
234
100
AcDbEntity
  8
2692.004
100
AcDbPolyline
 90
       41
 70
   128
 43
0.0
 10
35.49999999999992
 20
23.99999999999909
 10
35.51999466709322
 20
23.99960005332958
 10
35.5399573469845
 20
23.9984008531504
 10
35.5598561036444
 20
23.99640431792602
 10
35.57965910330703
 20
23.9936136416869
 10
35.59933466539742
 20
23.99003328891971
 10
35.61885131321345
 20
23.9856689874251
 10
35.63817782428197
 20
23.98052771915447
 10
35.65728328030795
 20
23.97461770904031
 10
35.67613711663748
 20
23.96794841183806
 10
35.69470917115424
 20
23.96053049700053
 10
35.7129697325329
 20
23.95237583160907
 10
35.73088958777063
 20
23.94349746138873
 10
35.74844006892178
 20
23.93390958983792
 10
35.76559309896035
 20
23.9236275555058
 10
35.78232123669739
 20
23.91266780745393
 10
35.79859772068108
 20
23.90104787894124
 10
35.81439651200913
 20
23.88878635937455
 10
35.82969233598561
 20
23.87590286456954
 10
35.84446072255517
 20
23.86241800536954
 10
35.85867804544967
 20
23.84835335467267
 10
35.87232155998532
 20
23.83373141291974
 10
35.88536943944938
 20
23.81857557209838
 10
35.89780081001809
 20
23.80291007832082
 10
35.90959578415041
 20
23.78675999303531
 10
35.92073549240385
 20
23.77015115293316
 10
35.93120211362157
 20
23.75311012861548
 10
35.94097890344237
 20
23.73566418208596
 10
35.95005022108817
 20
23.71784122313744
 10
35.95840155438579
 20
23.69966976470223
 10
35.9660195429835
 20
23.68117887723743
 10
35.97289199972467
 20
23.66239814221847
 10
35.97900793014449
 20
23.64335760481507
 10
35.98435755005903
 20
23.62408772582528
 10
35.98893230121757
 20
23.6046193329448
 10
35.99272486499413
 20
23.58498357144921
 10
35.99572917409574
 20
23.56521185436816
 10
35.99794042226873
 20
23.54533581223124
 10
35.99935507198769
 20
23.52538724246588
 10
35.99997086011491
 20
23.50539805852822
 10
35.99999999999989
 20
23.49999999999909
1001
REVIT
1002
{
1070
     2
1000
-2001160
1002
}
  0
LWPOLYLINE
  5
24D
330
234
100
AcDbEntity
  8
2692.004
100
AcDbPolyline
 90
        9
 70
   128
 43
0.0
 10
31.33304588379346
 20
23.99999999999909
 10
32.40050786471483
 20
23.99999999999909
 10
33.3123848896672
 20
23.99999999999909
 10
34.06721814993414
 20
23.99999999999909
 10
34.66380007332162
 20
23.99999999999909
 10
35.10117625601637
 20
23.99999999999909
 10
35.37864698942791
 20
23.99999999999909
 10
35.49576837957341
 20
23.99999999999909
 10
35.49999999999992
 20
23.99999999999909
1001
REVIT
1002
{
1070
     2
1000
-2001160
1002
}
  0
LWPOLYLINE
  5
24E
330
234
100
AcDbEntity
  8
2692.004
100
AcDbPolyline
 90
        9
 70
   128
 43
0.0
 10
35.49999999999992
 20
23.99999999999909
 10
35.41972825890205
 20
23.99999999999909
 10
35.17904145327057
 20
23.99999999999909
 10
34.77832463065067
 20
23.99999999999909
 10
34.21821885247681
 20
23.99999999999909
 10
33.49962016851129
 20
23.99999999999909
 10
32.62367818335548
 20
23.99999999999909
 10
31.59179421732805
 20
23.99999999999909
 10
31.33304588379346
 20
23.99999999999909
1001
REVIT
1002
{
1070
     2
1000
-2001160
1002
}
  0
LINE
  5
24F
330
234
100
AcDbEntity
  8
2692.004
100
AcDbLine
 10
35.99999999999989
 20
22.24999999999909
 30
0.0
 11
35.99999999999989
 21
23.49999999999909
 31
0.0
1001
REVIT
1002
{
1070
     2
1000
-2001160
1002
}
  0
LWPOLYLINE
  5
250
330
234
100
AcDbEntity
  8
2692.004
100
AcDbPolyline
 90
        9
 70
   128
 43
0.0
 10
31.33304588379346
 20
23.99999999999909
 10
31.31177175378157
 20
23.99999999999909
 10
31.29359837549698
 20
23.99999999999909
 10
31.27855482246818
 20
23.99999999999909
 10
31.26666516117089
 20
23.99999999999909
 10
31.25794841252686
 20
23.99999999999909
 10
31.25241852147445
 20
23.99999999999909
 10
31.25008433465968
 20
23.99999999999909
 10
31.24999999999977
 20
23.99999999999909
1001
REVIT
1002
{
1070
     2
1000
-2001160
1002
}
  0
LWPOLYLINE
  5
251
330
234
100
AcDbEntity
  8
2692.004
100
AcDbPolyline
 90
        8
 70
   128
 43
0.0
 10
30.24999999999977
 20
23.99999999999909
 10
30.2899893341864
 20
23.99999999999909
 10
30.32991469396895
 20
23.99999999999909
 10
30.3697122072887
 20
23.99999999999909
 10
30.40931820661402
 20
23.99999999999909
 10
30.44866933079483
 20
23.99999999999909
 10
30.48770262642691
 20
23.99999999999909
 10
30.49576080049857
 20
23.99999999999909
1001
REVIT
1002
{
1070
     2
1000
-2001160
1002
}
  0
LWPOLYLINE
  5
252
330
234
100
AcDbEntity
  8
2692.004
100
AcDbPolyline
 90
       18
 70
   128
 43
0.0
 10
31.04560162003614
 20
23.99999999999909
 10
31.06919156830077
 20
23.99999999999909
 10
31.09147098480767
 20
23.99999999999909
 10
31.11240422724311
 20
23.99999999999909
 10
31.13195780688473
 20
23.99999999999909
 10
31.15010044217628
 20
23.99999999999909
 10
31.16680310877153
 20
23.99999999999909
 10
31.18203908596701
 20
23.99999999999909
 10
31.19578399944931
 20
23.99999999999909
 10
31.208015860289
 20
23.99999999999909
 10
31.21871510011803
 20
23.99999999999909
 10
31.22786460243509
 20
23.99999999999909
 10
31.23544972998824
 20
23.99999999999909
 10
31.24145834819146
 20
23.99999999999909
 10
31.24588084453741
 20
23.99999999999909
 10
31.24871014397536
 20
23.99999999999909
 10
31.24994172022975
 20
23.99999999999909
 10
31.24999999999977
 20
23.99999999999909
1001
REVIT
1002
{
1070
     2
1000
-2001160
1002
}
  0
LINE
  5
253
330
234
100
AcDbEntity
  8
2692.004
100
AcDbLine
 10
30.24999999999977
 20
23.99999999999909
 30
0.0
 11
0.4999651677552351
 21
23.99999999999909
 31
0.0
1001
REVIT
1002
{
1070
     2
1000
-2001160
1002
}
  0
LINE
  5
254
330
234
100
AcDbEntity
  8
2692.004
100
AcDbLine
 10
30.79673732754264
 20
3.507730857471774
 30
0.0
 11
34.88738802208722
 21
22.24999999999878
 31
0.0
1001
REVIT
1002
{
1070
     2
1000
-2001160
1002
}
  0
LINE
  5
255
330
234
100
AcDbEntity
  8
2692.004
100
AcDbLine
 10
27.42645213895023
 20
3.50773085747247
 30
0.0
 11
31.10971113499493
 21
22.249999999998
 31
0.0
1001
REVIT
1002
{
1070
     2
1000
-2001160
1002
}
  0
LINE
  5
256
330
234
100
AcDbEntity
  8
2692.004
100
AcDbLine
 10
0.0000000000000142
 20
22.24999999999907
 30
0.0
 11
30.24999999999972
 21
22.24999999999907
 31
0.0
1001
REVIT
1002
{
1070
     2
1000
-2001160
1002
}
  0
LINE
  5
257
330
234
100
AcDbEntity
  8
2692.004
100
AcDbLine
 10
30.24999999999972
 20
22.24999999999907
 30
0.0
 11
31.74999999999973
 21
22.24999999999907
 31
0.0
1001
REVIT
1002
{
1070
     2
1000
-2001160
1002
}
  0
LINE
  5
258
330
234
100
AcDbEntity
  8
2692.004
100
AcDbLine
 10
31.74999999999973
 20
22.24999999999907
 30
0.0
 11
31.81228441284499
 21
22.24999999999907
 31
0.0
1001
REVIT
1002
{
1070
     2
1000
-2001160
1002
}
  0
LINE
  5
259
330
234
100
AcDbEntity
  8
2692.004
100
AcDbLine
 10
31.812284412845
 20
22.24999999999907
 30
0.0
 11
35.94794248053171
 21
22.24999999999907
 31
0.0
1001
REVIT
1002
{
1070
     2
1000
-2001160
1002
}
  0
LINE
  5
25A
330
234
100
AcDbEntity
  8
2692.004
100
AcDbLine
 10
0.0
 20
23.49999999999908
 30
0.0
 11
0.0
 21
22.24999999999907
 31
0.0
1001
REVIT
1002
{
1070
     2
1000
-2001160
1002
}
  0
LINE
  5
25B
330
234
100
AcDbEntity
  8
2692.004
100
AcDbLine
 10
0.0
 20
0.0
 30
0.0
 11
0.0
 21
0.456422128626155
 31
0.0
1001
REVIT
1002
{
1070
     2
1000
-2001160
1002
}
  0
LINE
  5
25C
330
234
100
AcDbEntity
  8
2692.004
100
AcDbLine
 10
0.0000000000000284
 20
0.4564221286261692
 30
0.0
 11
0.0000000000000284
 21
3.137695282272375
 31
0.0
1001
REVIT
1002
{
1070
     2
1000
-2001160
1002
}
  0
LINE
  5
25D
330
234
100
AcDbEntity
  8
2692.004
100
AcDbLine
 10
0.0
 20
3.13769528227236
 30
0.0
 11
0.0
 21
3.306243830083779
 31
0.0
1001
REVIT
1002
{
1070
     2
1000
-2001160
1002
}
  0
LINE
  5
25E
330
234
100
AcDbEntity
  8
2692.004
100
AcDbLine
 10
0.0
 20
3.310013630353314
 30
0.0
 11
0.0
 21
3.50773085747236
 31
0.0
1001
REVIT
1002
{
1070
     2
1000
-2001160
1002
}
  0
LINE
  5
25F
330
234
100
AcDbEntity
  8
2692.004
100
AcDbLine
 10
0.0000000000000284
 20
3.507730857472466
 30
0.0
 11
0.0
 21
22.24999999999798
 31
0.0
1001
REVIT
1002
{
1070
     2
1000
-2001160
1002
}
  0
LINE
  5
260
330
234
100
AcDbEntity
  8
2692.004
100
AcDbLine
 10
30.79673732754286
 20
3.507730857472466
 30
0.0
 11
27.58868983173713
 21
3.507730857472466
 31
0.0
1001
REVIT
1002
{
1070
     2
1000
-2001160
1002
}
  0
LINE
  5
261
330
234
100
AcDbEntity
  8
2692.004
100
AcDbLine
 10
25.92645213895021
 20
3.507730857472626
 30
0.0
 11
0.0
 21
3.507730857472672
 31
0.0
1001
REVIT
1002
{
1070
     2
1000
-2001160
1002
}
  0
LINE
  5
262
330
234
100
AcDbEntity
  8
2692.004
100
AcDbLine
 10
27.42444304101349
 20
3.507730857472466
 30
0.0
 11
25.92645213895023
 21
3.507730857472466
 31
0.0
1001
REVIT
1002
{
1070
     2
1000
-2001160
1002
}
  0
LINE
  5
263
330
234
100
AcDbEntity
  8
2692.004
100
AcDbLine
 10
27.42645213895021
 20
3.507730857472466
 30
0.0
 11
27.42444304101349
 21
3.507730857472466
 31
0.0
1001
REVIT
1002
{
1070
     2
1000
-2001160
1002
}
  0
LINE
  5
264
330
234
100
AcDbEntity
  8
2692.004
100
AcDbLine
 10
27.43629326925526
 20
3.507730857472466
 30
0.0
 11
27.42645213895021
 21
3.507730857472466
 31
0.0
1001
REVIT
1002
{
1070
     2
1000
-2001160
1002
}
  0
LINE
  5
265
330
234
100
AcDbEntity
  8
2692.004
100
AcDbLine
 10
27.588689831737
 20
3.507730857472466
 30
0.0
 11
27.43629326925526
 21
3.507730857472466
 31
0.0
1001
REVIT
1002
{
1070
     2
1000
-2001160
1002
}
  0
LINE
  5
266
330
234
100
AcDbEntity
  8
2692.004
100
AcDbLine
 10
27.42444304101349
 20
3.507730857472466
 30
0.0
 11
26.98698623599448
 21
3.309708780176801
 31
0.0
  0
ARC
  5
267
330
234
100
AcDbEntity
  8
2692.004
100
AcDbCircle
 10
0.4999651677552351
 20
23.50003483103057
 30
0.0
 40
0.4999651689685204
100
AcDbArc
 50
90.0
 51
180.0039916202691
  0
ENDBLK
  5
236
330
234
100
AcDbEntity
  8
0
100
AcDbBlockEnd
  0
BLOCK
  5
26A
330
269
100
AcDbEntity
  8
0
100
AcDbBlockBegin
  2
AMSTD_Estate_2692.004_Plan View
 70
     0
 10
0.0
 20
0.0
 30
0.0
  3
AMSTD_Estate_2692.004_Plan View
  1

  0
ARC
  5
26C
330
269
100
AcDbEntity
  8
2692.004
100
AcDbCircle
 10
-32.46875000000001
 20
-30.24999999999959
 30
0.0
 40
1.499999999999998
100
AcDbArc
 50
179.9999999999992
 51
269.9999999999992
1001
REVIT
1002
{
1070
     1
1000
24197
1002
}
1002
{
1070
     2
1000
-2001160
1002
}
  0
LINE
  5
26D
330
269
100
AcDbEntity
  8
2692.004
100
AcDbLine
 10
-32.46875000000001
 20
-31.74999999999959
 30
0.0
 11
-29.1879851405078
 21
-31.7499999999996
 31
0.0
1001
REVIT
1002
{
1070
     1
1000
24197
1002
}
1002
{
1070
     2
1000
-2001160
1002
}
  0
ARC
  5
26E
330
269
100
AcDbEntity
  8
2692.004
100
AcDbCircle
 10
-29.18798514050779
 20
-33.24999999999948
 30
0.0
 40
1.499999999999879
100
AcDbArc
 50
73.43101037379397
 51
90.0
1001
REVIT
1002
{
1070
     1
1000
24197
1002
}
1002
{
1070
     2
1000
-2001160
1002
}
  0
ARC
  5
26F
330
269
100
AcDbEntity
  8
2692.004
100
AcDbCircle
 10
0.0000000000002345
 20
64.853056066176
 30
0.0
 40
100.8530560661756
100
AcDbArc
 50
253.4310103737943
 51
286.568989626205
1001
REVIT
1002
{
1070
     1
1000
24197
1002
}
1002
{
1070
     2
1000
-2001160
1002
}
  0
ARC
  5
270
330
269
100
AcDbEntity
  8
2692.004
100
AcDbCircle
 10
29.18798514050825
 20
-33.24999999999949
 30
0.0
 40
1.49999999999989
100
AcDbArc
 50
90.0
 51
106.568989626206
1001
REVIT
1002
{
1070
     1
1000
24197
1002
}
1002
{
1070
     2
1000
-2001160
1002
}
  0
LINE
  5
271
330
269
100
AcDbEntity
  8
2692.004
100
AcDbLine
 10
29.18798514050825
 20
-31.7499999999996
 30
0.0
 11
32.4687499999999
 21
-31.74999999999959
 31
0.0
1001
REVIT
1002
{
1070
     1
1000
24197
1002
}
1002
{
1070
     2
1000
-2001160
1002
}
  0
ARC
  5
272
330
269
100
AcDbEntity
  8
2692.004
100
AcDbCircle
 10
32.4687499999999
 20
-30.24999999999959
 30
0.0
 40
1.5
100
AcDbArc
 50
269.9999999999996
 51
0.0
1001
REVIT
1002
{
1070
     1
1000
24197
1002
}
1002
{
1070
     2
1000
-2001160
1002
}
  0
LINE
  5
273
330
269
100
AcDbEntity
  8
2692.004
100
AcDbLine
 10
33.9687499999999
 20
-30.24999999999959
 30
0.0
 11
33.96874999999996
 21
-0.0000000000000995
 31
0.0
1001
REVIT
1002
{
1070
     1
1000
24197
1002
}
1002
{
1070
     2
1000
-2001160
1002
}
  0
LINE
  5
274
330
269
100
AcDbEntity
  8
2692.004
100
AcDbLine
 10
33.96874999999996
 20
-0.0000000000000995
 30
0.0
 11
-33.96874999999996
 21
0.0000000000001137
 31
0.0
1001
REVIT
1002
{
1070
     1
1000
24197
1002
}
1002
{
1070
     2
1000
-2001160
1002
}
  0
LINE
  5
275
330
269
100
AcDbEntity
  8
2692.004
100
AcDbLine
 10
-33.96874999999996
 20
0.0000000000001137
 30
0.0
 11
-33.96875000000001
 21
-30.24999999999959
 31
0.0
1001
REVIT
1002
{
1070
     1
1000
24197
1002
}
1002
{
1070
     2
1000
-2001160
1002
}
  0
LINE
  5
276
330
269
100
AcDbEntity
  8
2692.004
100
AcDbLine
 10
28.73275619802544
 20
-5.214088871329849
 30
0.0
 11
-28.74514422011277
 21
-5.214088871329664
 31
0.0
1001
REVIT
1002
{
1070
     1
1000
24321
1002
}
1002
{
1070
     2
1000
-2001160
1002
}
  0
ARC
  5
277
330
269
100
AcDbEntity
  8
2692.004
100
AcDbCircle
 10
-28.74514422011277
 20
-5.950082673304066
 30
0.0
 40
0.7359938019744114
100
AcDbArc
 50
90.0
 51
180.0
1001
REVIT
1002
{
1070
     1
1000
24326
1002
}
1002
{
1070
     2
1000
-2001160
1002
}
  0
LINE
  5
278
330
269
100
AcDbEntity
  8
2692.004
100
AcDbLine
 10
-29.48113802208718
 20
-5.950082673304066
 30
0.0
 11
-29.48113802208722
 21
-26.02045022643537
 31
0.0
1001
REVIT
1002
{
1070
     1
1000
24336
1002
}
1002
{
1070
     2
1000
-2001160
1002
}
  0
ARC
  5
279
330
269
100
AcDbEntity
  8
2692.004
100
AcDbCircle
 10
-28.74514422011281
 20
-26.02045022643537
 30
0.0
 40
0.7359938019744173
100
AcDbArc
 50
180.0
 51
262.304033175335
1001
REVIT
1002
{
1070
     1
1000
24342
1002
}
1002
{
1070
     2
1000
-2001160
1002
}
  0
ARC
  5
27A
330
269
100
AcDbEntity
  8
2692.004
100
AcDbCircle
 10
-29.69627896153908
 20
-33.05892589824818
 30
0.0
 40
6.366456273812716
100
AcDbArc
 50
73.43101037379387
 51
82.30403317533589
1001
REVIT
1002
{
1070
     1
1000
24350
1002
}
1002
{
1070
     2
1000
-2001160
1002
}
  0
ARC
  5
27B
330
269
100
AcDbEntity
  8
2692.004
100
AcDbCircle
 10
-0.0122723493555839
 20
66.71129636701249
 30
0.0
 40
97.72599061553494
100
AcDbArc
 50
253.4310103737935
 51
286.5689896262006
1001
REVIT
1002
{
1070
     1
1000
24359
1002
}
1002
{
1070
     2
1000
-2001160
1002
}
  0
ARC
  5
27C
330
269
100
AcDbEntity
  8
2692.004
100
AcDbCircle
 10
29.67173426281885
 20
-33.05892589825031
 30
0.0
 40
6.366456273812173
100
AcDbArc
 50
97.59701850444145
 51
106.5689896262009
1001
REVIT
1002
{
1070
     1
1000
24368
1002
}
1002
{
1070
     2
1000
-2001160
1002
}
  0
ARC
  5
27D
330
269
100
AcDbEntity
  8
2692.004
100
AcDbCircle
 10
28.73275619802539
 20
-26.01881813821725
 30
0.0
 40
0.735993801974427
100
AcDbArc
 50
277.597018504441
 51
0.0
1001
REVIT
1002
{
1070
     1
1000
24377
1002
}
1002
{
1070
     2
1000
-2001160
1002
}
  0
LINE
  5
27E
330
269
100
AcDbEntity
  8
2692.004
100
AcDbLine
 10
29.46874999999982
 20
-26.01881813821725
 30
0.0
 11
29.46874999999986
 21
-5.950082673304251
 31
0.0
1001
REVIT
1002
{
1070
     1
1000
24385
1002
}
1002
{
1070
     2
1000
-2001160
1002
}
  0
ARC
  5
27F
330
269
100
AcDbEntity
  8
2692.004
100
AcDbCircle
 10
28.73275619802544
 20
-5.950082673304251
 30
0.0
 40
0.7359938019744066
100
AcDbArc
 50
359.9999999999992
 51
90.0
1001
REVIT
1002
{
1070
     1
1000
24391
1002
}
1002
{
1070
     2
1000
-2001160
1002
}
  0
CIRCLE
  5
280
330
269
100
AcDbEntity
  8
2692.004
100
AcDbCircle
 10
-0.0000000000005045
 20
-17.99999999999923
 30
0.0
 40
1.093749999997525
1001
REVIT
1002
{
1070
     1
1000
24415
1002
}
1002
{
1070
     2
1000
-2001160
1002
}
  0
LINE
  5
281
330
269
100
AcDbEntity
  8
2692.004
100
AcDbLine
 10
-19.57485784663888
 20
-9.223549138409083
 30
0.0
 11
-19.57485784663891
 21
-25.08577657220786
 31
0.0
1001
REVIT
1002
{
1070
     1
1000
24492
1002
}
1002
{
1070
     2
1000
-2001160
1002
}
  0
ARC
  5
282
330
269
100
AcDbEntity
  8
2692.004
100
AcDbCircle
 10
-19.06801341968626
 20
-9.223549138409083
 30
0.0
 40
0.5068444269526261
100
AcDbArc
 50
90.0
 51
180.0
1001
REVIT
1002
{
1070
     1
1000
24497
1002
}
1002
{
1070
     2
1000
-2001160
1002
}
  0
ARC
  5
283
330
269
100
AcDbEntity
  8
2692.004
100
AcDbCircle
 10
-19.06801341968628
 20
-25.08577657220785
 30
0.0
 40
0.5068444269526289
100
AcDbArc
 50
180.0
 51
262.3040331753359
1001
REVIT
1002
{
1070
     1
1000
24507
1002
}
1002
{
1070
     2
1000
-2001160
1002
}
  0
ARC
  5
284
330
269
100
AcDbEntity
  8
2692.004
100
AcDbCircle
 10
-19.72301532551699
 20
-29.93284479333875
 30
0.0
 40
4.38427996698166
100
AcDbArc
 50
74.21243339135141
 51
82.30403317533626
1001
REVIT
1002
{
1070
     1
1000
24515
1002
}
1002
{
1070
     2
1000
-2001160
1002
}
  0
ARC
  5
285
330
269
100
AcDbEntity
  8
2692.004
100
AcDbCircle
 10
0.0020081444065028
 20
39.8316913782632
 30
0.0
 40
68.11514801784996
100
AcDbArc
 50
254.2124333913513
 51
285.7875666086482
1001
REVIT
1002
{
1070
     1
1000
24524
1002
}
1002
{
1070
     2
1000
-2001160
1002
}
  0
ARC
  5
286
330
269
100
AcDbEntity
  8
2692.004
100
AcDbCircle
 10
19.72703161432997
 20
-29.93284479333875
 30
0.0
 40
4.38427996698166
100
AcDbArc
 50
97.59701850444185
 51
105.7875666086486
1001
REVIT
1002
{
1070
     1
1000
24533
1002
}
1002
{
1070
     2
1000
-2001160
1002
}
  0
ARC
  5
287
330
269
100
AcDbEntity
  8
2692.004
100
AcDbCircle
 10
19.08040144177336
 20
-25.08465262956489
 30
0.0
 40
0.506844426952631
100
AcDbArc
 50
277.5970185044414
 51
0.0
1001
REVIT
1002
{
1070
     1
1000
24542
1002
}
1002
{
1070
     2
1000
-2001160
1002
}
  0
LINE
  5
288
330
269
100
AcDbEntity
  8
2692.004
100
AcDbLine
 10
19.58724586872599
 20
-25.08465262956489
 30
0.0
 11
19.58724586872602
 21
-9.223549138409211
 31
0.0
1001
REVIT
1002
{
1070
     1
1000
24550
1002
}
1002
{
1070
     2
1000
-2001160
1002
}
  0
ARC
  5
289
330
269
100
AcDbEntity
  8
2692.004
100
AcDbCircle
 10
19.0804014417734
 20
-9.223549138409211
 30
0.0
 40
0.5068444269526289
100
AcDbArc
 50
0.0
 51
90.0
1001
REVIT
1002
{
1070
     1
1000
24556
1002
}
1002
{
1070
     2
1000
-2001160
1002
}
  0
LINE
  5
28A
330
269
100
AcDbEntity
  8
2692.004
100
AcDbLine
 10
19.0804014417734
 20
-8.716704711456586
 30
0.0
 11
-19.06801341968626
 21
-8.716704711456458
 31
0.0
1001
REVIT
1002
{
1070
     1
1000
24563
1002
}
1002
{
1070
     2
1000
-2001160
1002
}
  0
LINE
  5
28B
330
269
100
AcDbEntity
  8
2692.004
100
AcDbLine
 10
29.35613802208706
 20
-4.362611977912933
 30
0.0
 11
-29.35613802208719
 21
-4.362611977912735
 31
0.0
1001
REVIT
1002
{
1070
     1
1000
24884
1002
}
1002
{
1070
     2
1000
-2001160
1002
}
  0
LINE
  5
28C
330
269
100
AcDbEntity
  8
2692.004
100
AcDbLine
 10
-30.35613802208718
 20
-5.362611977912735
 30
0.0
 11
-30.35613802208714
 21
-26.21147272374748
 31
0.0
1001
REVIT
1002
{
1070
     1
1000
24976
1002
}
1002
{
1070
     2
1000
-2001160
1002
}
  0
LINE
  5
28D
330
269
100
AcDbEntity
  8
2692.004
100
AcDbLine
 10
30.35613802208707
 20
-5.362611977912933
 30
0.0
 11
30.35613802208704
 21
-26.01881813821726
 31
0.0
1001
REVIT
1002
{
1070
     1
1000
25096
1002
}
1002
{
1070
     2
1000
-2001160
1002
}
  0
ARC
  5
28E
330
269
100
AcDbEntity
  8
2692.004
100
AcDbCircle
 10
29.35613802208706
 20
-5.362611977912933
 30
0.0
 40
0.9999999999999989
100
AcDbArc
 50
359.9999999999992
 51
89.99999999999959
1001
REVIT
1002
{
1070
     1
1000
25185
1002
}
1002
{
1070
     2
1000
-2001160
1002
}
  0
ARC
  5
28F
330
269
100
AcDbEntity
  8
2692.004
100
AcDbCircle
 10
-29.35613802208719
 20
-5.362611977912735
 30
0.0
 40
1.0
100
AcDbArc
 50
89.99999999999959
 51
179.9999999999992
1001
REVIT
1002
{
1070
     1
1000
25253
1002
}
1002
{
1070
     2
1000
-2001160
1002
}
  0
ARC
  5
290
330
269
100
AcDbEntity
  8
2692.004
100
AcDbCircle
 10
-28.74514422011282
 20
-26.02045022643537
 30
0.0
 40
1.622279453262919
100
AcDbArc
 50
186.762234103466
 51
262.3040331753387
1001
REVIT
1002
{
1070
     1
1000
26192
1002
}
1002
{
1070
     2
1000
-2001160
1002
}
  0
ARC
  5
291
330
269
100
AcDbEntity
  8
2692.004
100
AcDbCircle
 10
-29.69627896153908
 20
-33.05892589824818
 30
0.0
 40
5.480170622524219
100
AcDbArc
 50
73.4310103737955
 51
82.30403317533589
1001
REVIT
1002
{
1070
     1
1000
26198
1002
}
1002
{
1070
     2
1000
-2001160
1002
}
  0
ARC
  5
292
330
269
100
AcDbEntity
  8
2692.004
100
AcDbCircle
 10
-0.0122723493555626
 20
66.71129636702301
 30
0.0
 40
98.6122762668335
100
AcDbArc
 50
253.4310103737951
 51
286.5689896261989
1001
REVIT
1002
{
1070
     1
1000
26211
1002
}
1002
{
1070
     2
1000
-2001160
1002
}
  0
ARC
  5
293
330
269
100
AcDbEntity
  8
2692.004
100
AcDbCircle
 10
29.67173426281884
 20
-33.05892589825031
 30
0.0
 40
5.480170622523684
100
AcDbArc
 50
97.59701850444145
 51
106.5689896261994
1001
REVIT
1002
{
1070
     1
1000
26220
1002
}
1002
{
1070
     2
1000
-2001160
1002
}
  0
ARC
  5
294
330
269
100
AcDbEntity
  8
2692.004
100
AcDbCircle
 10
28.73275619802538
 20
-26.01881813821725
 30
0.0
 40
1.622279453262917
100
AcDbArc
 50
277.597018504441
 51
0.0
1001
REVIT
1002
{
1070
     1
1000
26229
1002
}
1002
{
1070
     2
1000
-2001160
1002
}
  0
LINE
  5
295
330
269
100
AcDbEntity
  8
2692.004
100
AcDbLine
 10
-32.85613802208713
 20
-1.112611977912706
 30
0.0
 11
32.85613802208712
 21
-1.112611977912919
 31
0.0
1001
REVIT
1002
{
1070
     1
1000
27375
1002
}
1002
{
1070
     2
1000
-2001160
1002
}
  0
LINE
  5
296
330
269
100
AcDbEntity
  8
2692.004
100
AcDbLine
 10
32.85613802208712
 20
-1.112611977912919
 30
0.0
 11
32.85613802208707
 21
-30.24999999999959
 31
0.0
1001
REVIT
1002
{
1070
     1
1000
27376
1002
}
1002
{
1070
     2
1000
-2001160
1002
}
  0
ARC
  5
297
330
269
100
AcDbEntity
  8
2692.004
100
AcDbCircle
 10
32.4687499999999
 20
-30.24999999999959
 30
0.0
 40
0.3873880220871726
100
AcDbArc
 50
269.9999999999996
 51
0.0
1001
REVIT
1002
{
1070
     1
1000
27377
1002
}
1002
{
1070
     2
1000
-2001160
1002
}
  0
LINE
  5
298
330
269
100
AcDbEntity
  8
2692.004
100
AcDbLine
 10
32.4687499999999
 20
-30.63738802208676
 30
0.0
 11
29.18798514050824
 21
-30.63738802208677
 31
0.0
1001
REVIT
1002
{
1070
     1
1000
27378
1002
}
1002
{
1070
     2
1000
-2001160
1002
}
  0
ARC
  5
299
330
269
100
AcDbEntity
  8
2692.004
100
AcDbCircle
 10
29.18798514050825
 20
-33.2499999999996
 30
0.0
 40
2.612611977912815
100
AcDbArc
 50
90.0
 51
106.5689896262056
1001
REVIT
1002
{
1070
     1
1000
27379
1002
}
1002
{
1070
     2
1000
-2001160
1002
}
  0
ARC
  5
29A
330
269
100
AcDbEntity
  8
2692.004
100
AcDbCircle
 10
-0.0000000000007958
 20
64.85305606617592
 30
0.0
 40
99.74044408826278
100
AcDbArc
 50
253.4310103737947
 51
286.5689896262053
1001
REVIT
1002
{
1070
     1
1000
27380
1002
}
1002
{
1070
     2
1000
-2001160
1002
}
  0
ARC
  5
29B
330
269
100
AcDbEntity
  8
2692.004
100
AcDbCircle
 10
-29.18798514050781
 20
-33.2499999999996
 30
0.0
 40
2.612611977912831
100
AcDbArc
 50
73.4310103737955
 51
89.99999999999959
1001
REVIT
1002
{
1070
     1
1000
27381
1002
}
1002
{
1070
     2
1000
-2001160
1002
}
  0
LINE
  5
29C
330
269
100
AcDbEntity
  8
2692.004
100
AcDbLine
 10
-29.18798514050779
 20
-30.63738802208676
 30
0.0
 11
-32.46875000000001
 21
-30.63738802208675
 31
0.0
1001
REVIT
1002
{
1070
     1
1000
27382
1002
}
1002
{
1070
     2
1000
-2001160
1002
}
  0
ARC
  5
29D
330
269
100
AcDbEntity
  8
2692.004
100
AcDbCircle
 10
-32.46875000000001
 20
-30.24999999999959
 30
0.0
 40
0.3873880220871584
100
AcDbArc
 50
180.0
 51
269.9999999999996
1001
REVIT
1002
{
1070
     1
1000
27383
1002
}
1002
{
1070
     2
1000
-2001160
1002
}
  0
LINE
  5
29E
330
269
100
AcDbEntity
  8
2692.004
100
AcDbLine
 10
-32.85613802208718
 20
-30.24999999999959
 30
0.0
 11
-32.85613802208713
 21
-1.112611977912706
 31
0.0
1001
REVIT
1002
{
1070
     1
1000
27384
1002
}
1002
{
1070
     2
1000
-2001160
1002
}
  0
ELLIPSE
  5
29F
330
269
100
AcDbEntity
  8
2692.004
100
AcDbEllipse
 10
-1.309288106663451
 20
-30.76140344802154
 30
0.0
 11
-0.2536101505542025
 21
0.0031860914410757
 31
0.0
210
0.0
220
0.0
230
1.0
 40
0.1598287749902167
 41
4.774061159595912
 42
7.811492933303457
1001
REVIT
1002
{
1070
     1
1000
27550
1002
}
1002
{
1070
     2
1000
-2001160
1002
}
  0
ARC
  5
2A0
330
269
100
AcDbEntity
  8
2692.004
100
AcDbCircle
 10
-0.0107831164315826
 20
63.8934568772791
 30
0.0
 40
94.62332560708677
100
AcDbArc
 50
269.2045541691672
 51
270.8113058666619
1001
REVIT
1002
{
1070
     1
1000
27557
1002
}
1002
{
1070
     2
1000
-2001160
1002
}
  0
ELLIPSE
  5
2A1
330
269
100
AcDbEntity
  8
2692.004
100
AcDbEllipse
 10
1.309290366524301
 20
-30.76111137300971
 30
0.0
 11
0.2535949807403789
 21
0.0041612161014214
 31
0.0
210
0.0
220
0.0
230
1.0
 40
0.159803049178409
 41
4.740098439745976
 42
7.773423949414544
1001
REVIT
1002
{
1070
     1
1000
27572
1002
}
1002
{
1070
     2
1000
-2001160
1002
}
  0
ARC
  5
2A2
330
269
100
AcDbEntity
  8
2692.004
100
AcDbCircle
 10
-0.0112059680220185
 20
64.69332529517533
 30
0.0
 40
95.50406715193245
100
AcDbArc
 50
269.2144487695699
 51
270.7968453361345
1001
REVIT
1002
{
1070
     1
1000
27583
1002
}
1002
{
1070
     2
1000
-2001160
1002
}
  0
ENDBLK
  5
26B
330
269
100
AcDbEntity
  8
0
100
AcDbBlockEnd
  0
BLOCK
  5
2A5
330
2A4
100
AcDbEntity
  8
0
100
AcDbBlockBegin
  2
AMSTD_Estate_2692.004_Front View
 70
     0
 10
0.0
 20
0.0
 30
0.0
  3
AMSTD_Estate_2692.004_Front View
  1

  0
LWPOLYLINE
  5
2A7
330
2A4
100
AcDbEntity
  8
2692.004
100
AcDbPolyline
 90
       41
 70
   128
 43
0.0
 10
25.43750000000019
 20
3.309708780176801
 10
25.48770513345773
 20
3.309708780176801
 10
25.53782994941161
 20
3.309708780176801
 10
25.58779425884902
 20
3.309708780176801
 10
25.63751812953333
 20
3.309708780176801
 10
25.68692201387864
 20
3.309708780176801
 10
25.73592687620892
 20
3.309708780176801
 10
25.78445431919831
 20
3.309708780176801
 10
25.83242670928993
 20
3.309708780176801
 10
25.87976730089323
 20
3.309708780176801
 10
25.92640035916043
 20
3.309708780176801
 10
25.97225128114614
 20
3.309708780176801
 10
26.01724671515623
 20
3.309708780176801
 10
26.06131467809476
 20
3.309708780176801
 10
26.1043846706217
 20
3.309708780176801
 10
26.1463877899368
 20
3.309708780176801
 10
26.18725684000932
 20
3.309708780176801
 10
26.22692643907743
 20
3.309708780176801
 10
26.26533312424501
 20
3.309708780176801
 10
26.30241545300877
 20
3.309708780176801
 10
26.33811410155319
 20
3.309708780176801
 10
26.37237195965587
 20
3.309708780176801
 10
26.40513422205181
 20
3.309708780176801
 10
26.43634847611011
 20
3.309708780176801
 10
26.46596478568294
 20
3.309708780176801
 10
26.49393577099278
 20
3.309708780176801
 10
26.52021668443
 20
3.309708780176801
 10
26.54476548213937
 20
3.309708780176801
 10
26.56754289128135
 20
3.309708780176801
 10
26.58851247286024
 20
3.309708780176801
 10
26.60764068001878
 20
3.309708780176801
 10
26.62489691170601
 20
3.309708780176801
 10
26.64025356163231
 20
3.309708780176801
 10
26.65368606243376
 20
3.309708780176801
 10
26.66517292497451
 20
3.309708780176801
 10
26.67469577272487
 20
3.309708780176801
 10
26.68223937115991
 20
3.309708780176801
 10
26.68779165213133
 20
3.309708780176801
 10
26.691343733174
 20
3.309708780176801
 10
26.69288993171598
 20
3.309708780176801
 10
26.69296309981672
 20
3.309708780176801
1001
REVIT
1002
{
1070
     2
1000
-2001160
1002
}
  0
LINE
  5
2A8
330
2A4
100
AcDbEntity
  8
2692.004
100
AcDbLine
 10
23.42538920963102
 20
3.309708780176801
 30
0.0
 11
25.43750000000019
 21
3.309708780176801
 31
0.0
1001
REVIT
1002
{
1070
     2
1000
-2001160
1002
}
  0
LWPOLYLINE
  5
2A9
330
2A4
100
AcDbEntity
  8
2692.004
100
AcDbPolyline
 90
        9
 70
   128
 43
0.0
 10
23.42538920963102
 20
3.309708780176801
 10
23.25565300506207
 20
3.309708780176801
 10
23.08618834221197
 20
3.309708780176801
 10
22.91726632839077
 20
3.309708780176801
 10
22.74915720278578
 20
3.309708780176801
 10
22.58212990413662
 20
3.309708780176801
 10
22.41645164049051
 20
3.309708780176801
 10
22.2523874617265
 20
3.309708780176801
 10
22.22880781100533
 20
3.309708780176801
1001
REVIT
1002
{
1070
     2
1000
-2001160
1002
}
  0
LWPOLYLINE
  5
2AA
330
2A4
100
AcDbEntity
  8
2692.004
100
AcDbPolyline
 90
       16
 70
   128
 43
0.0
 10
-22.22880781100635
 20
3.309708780176801
 10
-19.18574075497744
 20
3.309708780176801
 10
-16.11198060648032
 20
3.309708780176801
 10
-13.01244472605205
 20
3.309708780176801
 10
-9.89209170990224
 20
3.309708780176801
 10
-6.755913457216957
 20
3.309708780176801
 10
-3.608927184184803
 20
3.309708780176801
 10
-0.456167397521349
 20
3.309708780176801
 10
2.697322159667619
 20
3.309708780176801
 10
5.846496576799147
 20
3.309708780176801
 10
8.986317846593887
 20
3.309708780176801
 10
12.11176292481298
 20
3.309708780176801
 10
15.21783176605731
 20
3.309708780176801
 10
18.29955532277359
 20
3.309708780176801
 10
21.35200349467037
 20
3.309708780176801
 10
22.22880781100526
 20
3.309708780176801
1001
REVIT
1002
{
1070
     2
1000
-2001160
1002
}
  0
LWPOLYLINE
  5
2AB
330
2A4
100
AcDbEntity
  8
2692.004
100
AcDbPolyline
 90
        9
 70
   128
 43
0.0
 10
-22.22880781100628
 20
3.309708780176801
 10
-22.39261675051266
 20
3.309708780176801
 10
-22.55807790564059
 20
3.309708780176801
 10
-22.72492657383836
 20
3.309708780176801
 10
-22.89289583282934
 20
3.309708780176801
 10
-23.06171696763067
 20
3.309708780176801
 10
-23.23111990043994
 20
3.309708780176801
 10
-23.40083362270199
 20
3.309708780176801
 10
-23.42538920963105
 20
3.309708780176801
1001
REVIT
1002
{
1070
     2
1000
-2001160
1002
}
  0
LINE
  5
2AC
330
2A4
100
AcDbEntity
  8
2692.004
100
AcDbLine
 10
-25.43750000000081
 20
3.309708780176801
 30
0.0
 11
-23.42538920963105
 21
3.309708780176801
 31
0.0
1001
REVIT
1002
{
1070
     2
1000
-2001160
1002
}
  0
LINE
  5
2AD
330
2A4
100
AcDbEntity
  8
2692.004
100
AcDbLine
 10
-26.48298486600497
 20
3.137695282272378
 30
0.0
 11
-26.24840386124452
 21
0.4564221286261727
 31
0.0
1001
REVIT
1002
{
1070
     2
1000
-2001160
1002
}
  0
LWPOLYLINE
  5
2AE
330
2A4
100
AcDbEntity
  8
2692.004
100
AcDbPolyline
 90
       41
 70
   128
 43
0.0
 10
-26.69296309981735
 20
3.309708780176801
 10
-26.69195886324642
 20
3.309708780176801
 10
-26.68894776009792
 20
3.309708780176801
 10
-26.68393460749454
 20
3.309708780176801
 10
-26.67692742541104
 20
3.309708780176801
 10
-26.66793742384397
 20
3.309708780176801
 10
-26.65697898487807
 20
3.309708780176801
 10
-26.64406963967799
 20
3.309708780176801
 10
-26.62923004044224
 20
3.309708780176801
 10
-26.61248392736397
 20
3.309708780176801
 10
-26.59385809065178
 20
3.309708780176801
 10
-26.57338232767112
 20
3.309708780176801
 10
-26.55108939527482
 20
3.309708780176801
 10
-26.52701495739915
 20
3.309708780176801
 10
-26.50119752800911
 20
3.309708780176801
 10
-26.47367840948431
 20
3.309708780176801
 10
-26.44450162654392
 20
3.309708780176801
 10
-26.41371385581662
 20
3.309708780176801
 10
-26.38136435116787
 20
3.309708780176801
 10
-26.34750486490424
 20
3.309708780176801
 10
-26.31218956498078
 20
3.309708780176801
 10
-26.27547494834384
 20
3.309708780176801
 10
-26.23741975054802
 20
3.309708780176801
 10
-26.19808485179175
 20
3.309708780176801
 10
-26.15753317952207
 20
3.309708780176801
 10
-26.11582960776405
 20
3.309708780176801
 10
-26.0730408533362
 20
3.309708780176801
 10
-26.02923536911783
 20
3.309708780176801
 10
-25.98448323453902
 20
3.309708780176801
 10
-25.93885604346848
 20
3.309708780176801
 10
-25.89242678967865
 20
3.309708780176801
 10
-25.84526975007121
 20
3.309708780176801
 10
-25.79746036584989
 20
3.309708780176801
 10
-25.74907512183067
 20
3.309708780176801
 10
-25.70019142408232
 20
3.309708780176801
 10
-25.6508874760933
 20
3.309708780176801
 10
-25.60124215366276
 20
3.309708780176801
 10
-25.55133487871617
 20
3.309708780176801
 10
-25.50124549224709
 20
3.309708780176801
 10
-25.45105412658875
 20
3.309708780176801
 10
-25.43750000000081
 20
3.309708780176801
1001
REVIT
1002
{
1070
     2
1000
-2001160
1002
}
  0
LWPOLYLINE
  5
2AF
330
2A4
100
AcDbEntity
  8
2692.004
100
AcDbPolyline
 90
       41
 70
   128
 43
0.0
 10
-32.46875000000022
 20
23.99999999999909
 10
-32.50873933418687
 20
23.99999999999909
 10
-32.5486646939694
 20
23.99999999999909
 10
-32.58846220728915
 20
23.99999999999909
 10
-32.62806820661448
 20
23.99999999999909
 10
-32.66741933079528
 20
23.99999999999909
 10
-32.70645262642736
 20
23.99999999999909
 10
-32.74510564856433
 20
23.99999999999909
 10
-32.78331656061635
 20
23.99999999999909
 10
-32.82102423327531
 20
23.99999999999909
 10
-32.85816834230887
 20
23.99999999999909
 10
-32.89468946506622
 20
23.99999999999909
 10
-32.9305291755417
 20
23.99999999999909
 10
-32.96563013784396
 20
23.99999999999909
 10
-32.99993619792111
 20
23.99999999999909
 10
-33.03339247339526
 20
23.99999999999909
 10
-33.06594544136262
 20
23.99999999999909
 10
-33.09754302401869
 20
23.99999999999909
 10
-33.1281346719717
 20
23.99999999999909
 10
-33.15767144511078
 20
23.99999999999909
 10
-33.18610609089974
 20
23.99999999999909
 10
-33.21339311997108
 20
23.99999999999909
 10
-33.23948887889919
 20
23.99999999999909
 10
-33.26435162003659
 20
23.99999999999909
 10
-33.28794156830122
 20
23.99999999999909
 10
-33.31022098480812
 20
23.99999999999909
 10
-33.33115422724356
 20
23.99999999999909
 10
-33.35070780688517
 20
23.99999999999909
 10
-33.36885044217673
 20
23.99999999999909
 10
-33.38555310877199
 20
23.99999999999909
 10
-33.40078908596745
 20
23.99999999999909
 10
-33.41453399944976
 20
23.99999999999909
 10
-33.42676586028945
 20
23.99999999999909
 10
-33.43746510011849
 20
23.99999999999909
 10
-33.44661460243554
 20
23.99999999999909
 10
-33.45419972998868
 20
23.99999999999909
 10
-33.46020834819191
 20
23.99999999999909
 10
-33.46463084453786
 20
23.99999999999909
 10
-33.46746014397581
 20
23.99999999999909
 10
-33.46869172023018
 20
23.99999999999909
 10
-33.46875000000022
 20
23.99999999999909
1001
REVIT
1002
{
1070
     2
1000
-2001160
1002
}
  0
LINE
  5
2B0
330
2A4
100
AcDbEntity
  8
2692.004
100
AcDbLine
 10
-33.96875000000022
 20
23.49999999999909
 30
0.0
 11
-33.96875000000022
 21
22.24999999999909
 31
0.0
1001
REVIT
1002
{
1070
     2
1000
-2001160
1002
}
  0
LINE
  5
2B1
330
2A4
100
AcDbEntity
  8
2692.004
100
AcDbLine
 10
-29.18798514050801
 20
23.99999999999909
 30
0.0
 11
-32.46875000000022
 21
23.99999999999909
 31
0.0
1001
REVIT
1002
{
1070
     2
1000
-2001160
1002
}
  0
LWPOLYLINE
  5
2B2
330
2A4
100
AcDbEntity
  8
2692.004
100
AcDbPolyline
 90
        9
 70
   128
 43
0.0
 10
-29.18798514050801
 20
23.99999999999909
 10
-29.10800647213474
 20
23.99999999999909
 10
-29.02815575256968
 20
23.99999999999909
 10
-28.94856072593017
 20
23.99999999999909
 10
-28.86934872727952
 20
23.99999999999909
 10
-28.79064647891789
 20
23.99999999999909
 10
-28.71257988765375
 20
23.99999999999909
 10
-28.63527384337979
 20
23.99999999999909
 10
-28.61764584117852
 20
23.99999999999909
1001
REVIT
1002
{
1070
     2
1000
-2001160
1002
}
  0
LWPOLYLINE
  5
2B3
330
2A4
100
AcDbEntity
  8
2692.004
100
AcDbPolyline
 90
       16
 70
   128
 43
0.0
 10
28.61764584117857
 20
23.9999999999991
 10
24.74833660190473
 20
23.9999999999991
 10
20.83943530343143
 20
23.9999999999991
 10
16.89719535398172
 20
23.9999999999991
 10
12.92792349650841
 20
23.9999999999991
 10
8.93796971925061
 20
23.9999999999991
 10
4.933717097107175
 20
23.9999999999991
 10
0.9215715800785728
 20
23.9999999999991
 10
-3.092048254886712
 20
23.9999999999991
 10
-7.100721472245959
 20
23.9999999999991
 10
-11.09803504998942
 20
23.9999999999991
 10
-15.07759413910742
 20
23.9999999999991
 10
-19.03303229398473
 20
23.9999999999991
 10
-22.95802165735535
 20
23.9999999999991
 10
-26.84628308352427
 20
23.9999999999991
 10
-28.61764584117852
 20
23.9999999999991
1001
REVIT
1002
{
1070
     2
1000
-2001160
1002
}
  0
LWPOLYLINE
  5
2B4
330
2A4
100
AcDbEntity
  8
2692.004
100
AcDbPolyline
 90
        9
 70
   128
 43
0.0
 10
28.61764584117859
 20
23.9999999999991
 10
28.69475977055852
 20
23.9999999999991
 10
28.77266275531458
 20
23.9999999999991
 10
28.85123016728957
 20
23.9999999999991
 10
28.93033631538445
 20
23.9999999999991
 10
29.00985464663741
 20
23.9999999999991
 10
29.0896579486814
 20
23.9999999999991
 10
29.16961855325696
 20
23.9999999999991
 10
29.18798514050808
 20
23.9999999999991
1001
REVIT
1002
{
1070
     2
1000
-2001160
1002
}
  0
LINE
  5
2B5
330
2A4
100
AcDbEntity
  8
2692.004
100
AcDbLine
 10
32.46874999999976
 20
23.9999999999991
 30
0.0
 11
29.18798514050809
 21
23.9999999999991
 31
0.0
1001
REVIT
1002
{
1070
     2
1000
-2001160
1002
}
  0
LWPOLYLINE
  5
2B6
330
2A4
100
AcDbEntity
  8
2692.004
100
AcDbPolyline
 90
       41
 70
   128
 43
0.0
 10
33.46874999999976
 20
23.9999999999991
 10
33.46795010666074
 20
23.9999999999991
 10
33.46555170630238
 20
23.9999999999991
 10
33.46155863585363
 20
23.9999999999991
 10
33.45597728337538
 20
23.9999999999991
 10
33.44881657784101
 20
23.9999999999991
 10
33.44008797485179
 20
23.9999999999991
 10
33.42980543831052
 20
23.9999999999991
 10
33.4179854180822
 20
23.9999999999991
 10
33.4046468236777
 20
23.9999999999991
 10
33.38981099400264
 20
23.9999999999991
 10
33.37350166321972
 20
23.9999999999991
 10
33.35574492277903
 20
23.9999999999991
 10
33.33656917967741
 20
23.9999999999991
 10
33.31600511101318
 20
23.9999999999991
 10
33.29408561490943
 20
23.9999999999991
 10
33.27084575788405
 20
23.9999999999991
 10
33.24632271875069
 20
23.9999999999991
 10
33.22055572914065
 20
23.9999999999991
 10
33.19358601074065
 20
23.9999999999991
 10
33.1654567093469
 20
23.9999999999991
 10
33.13621282584107
 20
23.9999999999991
 10
33.10590114419833
 20
23.9999999999991
 10
33.07457015664321
 20
23.9999999999991
 10
33.0422699860722
 20
23.9999999999991
 10
33.00905230586788
 20
23.9999999999991
 10
32.97497025723254
 20
23.9999999999991
 10
32.94007836417349
 20
23.9999999999991
 10
32.90443244627645
 20
23.9999999999991
 10
32.86808952940602
 20
23.9999999999991
 10
32.83110775447642
 20
23.9999999999991
 10
32.79354628443852
 20
23.9999999999991
 10
32.7554652096317
 20
23.9999999999991
 10
32.71692545165211
 20
23.9999999999991
 10
32.67798866589117
 20
23.9999999999991
 10
32.63871714289999
 20
23.9999999999991
 10
32.5991737087379
 20
23.9999999999991
 10
32.55942162446405
 20
23.9999999999991
 10
32.51952448493332
 20
23.9999999999991
 10
32.47954611705802
 20
23.9999999999991
 10
32.46874999999976
 20
23.9999999999991
1001
REVIT
1002
{
1070
     2
1000
-2001160
1002
}
  0
LINE
  5
2B7
330
2A4
100
AcDbEntity
  8
2692.004
100
AcDbLine
 10
33.96874999999978
 20
22.24999999999909
 30
0.0
 11
33.96874999999978
 21
23.4999999999991
 31
0.0
1001
REVIT
1002
{
1070
     2
1000
-2001160
1002
}
  0
LINE
  5
2B8
330
2A4
100
AcDbEntity
  8
2692.004
100
AcDbLine
 10
33.46878483224484
 20
23.9999999999991
 30
0.0
 11
33.26143882834027
 21
23.9999999999991
 31
0.0
1001
REVIT
1002
{
1070
     2
1000
-2001160
1002
}
  0
LINE
  5
2B9
330
2A4
100
AcDbEntity
  8
2692.004
100
AcDbLine
 10
32.71451080049859
 20
23.9999999999991
 30
0.0
 11
27.56065201082113
 21
23.9999999999991
 31
0.0
1001
REVIT
1002
{
1070
     2
1000
-2001160
1002
}
  0
LINE
  5
2BA
330
2A4
100
AcDbEntity
  8
2692.004
100
AcDbLine
 10
22.78305719325787
 20
23.9999999999991
 30
0.0
 11
20.15158931269008
 21
23.9999999999991
 31
0.0
1001
REVIT
1002
{
1070
     2
1000
-2001160
1002
}
  0
LINE
  5
2BB
330
2A4
100
AcDbEntity
  8
2692.004
100
AcDbLine
 10
17.72400731611174
 20
23.9999999999991
 30
0.0
 11
15.47825219940349
 21
23.9999999999991
 31
0.0
1001
REVIT
1002
{
1070
     2
1000
-2001160
1002
}
  0
LINE
  5
2BC
330
2A4
100
AcDbEntity
  8
2692.004
100
AcDbLine
 10
9.747826397111847
 20
23.9999999999991
 30
0.0
 11
7.308596410523705
 21
23.9999999999991
 31
0.0
1001
REVIT
1002
{
1070
     2
1000
-2001160
1002
}
  0
LINE
  5
2BD
330
2A4
100
AcDbEntity
  8
2692.004
100
AcDbLine
 10
5.249219989959449
 20
23.9999999999991
 30
0.0
 11
-0.3149601653222449
 21
23.9999999999991
 31
0.0
1001
REVIT
1002
{
1070
     2
1000
-2001160
1002
}
  0
LINE
  5
2BE
330
2A4
100
AcDbEntity
  8
2692.004
100
AcDbLine
 10
-1.616532882303771
 20
23.9999999999991
 30
0.0
 11
-6.729261325452283
 21
23.9999999999991
 31
0.0
1001
REVIT
1002
{
1070
     2
1000
-2001160
1002
}
  0
LINE
  5
2BF
330
2A4
100
AcDbEntity
  8
2692.004
100
AcDbLine
 10
-15.73693012384521
 20
23.9999999999991
 30
0.0
 11
-18.98903344059428
 21
23.9999999999991
 31
0.0
1001
REVIT
1002
{
1070
     2
1000
-2001160
1002
}
  0
LINE
  5
2C0
330
2A4
100
AcDbEntity
  8
2692.004
100
AcDbLine
 10
-20.1515893127029
 20
23.9999999999991
 30
0.0
 11
-22.78305719322852
 21
23.9999999999991
 31
0.0
1001
REVIT
1002
{
1070
     2
1000
-2001160
1002
}
  0
LINE
  5
2C1
330
2A4
100
AcDbEntity
  8
2692.004
100
AcDbLine
 10
-27.56065201081071
 20
23.9999999999991
 30
0.0
 11
-33.02905374758437
 21
23.9999999999991
 31
0.0
1001
REVIT
1002
{
1070
     2
1000
-2001160
1002
}
  0
LINE
  5
2C2
330
2A4
100
AcDbEntity
  8
2692.004
100
AcDbLine
 10
-33.3284611349954
 20
22.24999999999801
 30
0.0
 11
-26.9375000000008
 21
3.50773085747247
 31
0.0
1001
REVIT
1002
{
1070
     2
1000
-2001160
1002
}
  0
LINE
  5
2C3
330
2A4
100
AcDbEntity
  8
2692.004
100
AcDbLine
 10
-33.96875000000019
 20
22.24999999999907
 30
0.0
 11
-32.46875000000021
 21
22.24999999999907
 31
0.0
1001
REVIT
1002
{
1070
     2
1000
-2001160
1002
}
  0
LINE
  5
2C4
330
2A4
100
AcDbEntity
  8
2692.004
100
AcDbLine
 10
-32.4687500000002
 20
22.24999999999907
 30
0.0
 11
-29.18798514050799
 21
22.24999999999907
 31
0.0
1001
REVIT
1002
{
1070
     2
1000
-2001160
1002
}
  0
LINE
  5
2C5
330
2A4
100
AcDbEntity
  8
2692.004
100
AcDbLine
 10
-29.18798514050799
 20
22.24999999999907
 30
0.0
 11
-28.76023066601089
 21
22.24999999999907
 31
0.0
1001
REVIT
1002
{
1070
     2
1000
-2001160
1002
}
  0
LINE
  5
2C6
330
2A4
100
AcDbEntity
  8
2692.004
100
AcDbLine
 10
-28.76023066601087
 20
22.24999999999907
 30
0.0
 11
28.76023066601088
 21
22.24999999999907
 31
0.0
1001
REVIT
1002
{
1070
     2
1000
-2001160
1002
}
  0
LINE
  5
2C7
330
2A4
100
AcDbEntity
  8
2692.004
100
AcDbLine
 10
28.76023066601094
 20
22.24999999999907
 30
0.0
 11
29.18798514050808
 21
22.24999999999907
 31
0.0
1001
REVIT
1002
{
1070
     2
1000
-2001160
1002
}
  0
LINE
  5
2C8
330
2A4
100
AcDbEntity
  8
2692.004
100
AcDbLine
 10
29.18798514050804
 20
22.24999999999907
 30
0.0
 11
32.46874999999973
 21
22.24999999999907
 31
0.0
1001
REVIT
1002
{
1070
     2
1000
-2001160
1002
}
  0
LINE
  5
2C9
330
2A4
100
AcDbEntity
  8
2692.004
100
AcDbLine
 10
32.46874999999973
 20
22.24999999999907
 30
0.0
 11
33.96874999999973
 21
22.24999999999907
 31
0.0
1001
REVIT
1002
{
1070
     2
1000
-2001160
1002
}
  0
LINE
  5
2CA
330
2A4
100
AcDbEntity
  8
2692.004
100
AcDbLine
 10
22.29774543904902
 20
3.507730857472466
 30
0.0
 11
-22.2977454390481
 21
3.507730857472466
 31
0.0
1001
REVIT
1002
{
1070
     2
1000
-2001160
1002
}
  0
LINE
  5
2CB
330
2A4
100
AcDbEntity
  8
2692.004
100
AcDbLine
 10
23.14497488297215
 20
3.507730857472466
 30
0.0
 11
22.29774543904858
 21
3.507730857472466
 31
0.0
1001
REVIT
1002
{
1070
     2
1000
-2001160
1002
}
  0
LINE
  5
2CC
330
2A4
100
AcDbEntity
  8
2692.004
100
AcDbLine
 10
23.42538920963101
 20
3.507730857472466
 30
0.0
 11
23.14497488297215
 21
3.507730857472466
 31
0.0
1001
REVIT
1002
{
1070
     2
1000
-2001160
1002
}
  0
LINE
  5
2CD
330
2A4
100
AcDbEntity
  8
2692.004
100
AcDbLine
 10
25.43750000000015
 20
3.507730857470857
 30
0.0
 11
23.42538920963099
 21
3.507730857470857
 31
0.0
1001
REVIT
1002
{
1070
     2
1000
-2001160
1002
}
  0
LINE
  5
2CE
330
2A4
100
AcDbEntity
  8
2692.004
100
AcDbLine
 10
25.51510964718155
 20
3.507730857472466
 30
0.0
 11
25.43750000000017
 21
3.507730857472466
 31
0.0
1001
REVIT
1002
{
1070
     2
1000
-2001160
1002
}
  0
LINE
  5
2CF
330
2A4
100
AcDbEntity
  8
2692.004
100
AcDbLine
 10
26.93750000000015
 20
3.507730857472466
 30
0.0
 11
25.51510964718155
 21
3.507730857472466
 31
0.0
1001
REVIT
1002
{
1070
     2
1000
-2001160
1002
}
  0
LINE
  5
2D0
330
2A4
100
AcDbEntity
  8
2692.004
100
AcDbLine
 10
-25.51510964718218
 20
3.507730857472466
 30
0.0
 11
-26.93750000000078
 21
3.507730857472466
 31
0.0
1001
REVIT
1002
{
1070
     2
1000
-2001160
1002
}
  0
LINE
  5
2D1
330
2A4
100
AcDbEntity
  8
2692.004
100
AcDbLine
 10
-25.43750000000077
 20
3.507730857472466
 30
0.0
 11
-25.51510964718218
 21
3.507730857472466
 31
0.0
1001
REVIT
1002
{
1070
     2
1000
-2001160
1002
}
  0
LINE
  5
2D2
330
2A4
100
AcDbEntity
  8
2692.004
100
AcDbLine
 10
-23.42538920963104
 20
3.507730857471585
 30
0.0
 11
-25.43750000000081
 21
3.507730857471585
 31
0.0
1001
REVIT
1002
{
1070
     2
1000
-2001160
1002
}
  0
LINE
  5
2D3
330
2A4
100
AcDbEntity
  8
2692.004
100
AcDbLine
 10
-23.14497488297369
 20
3.507730857472466
 30
0.0
 11
-23.42538920963101
 21
3.507730857472466
 31
0.0
1001
REVIT
1002
{
1070
     2
1000
-2001160
1002
}
  0
LINE
  5
2D4
330
2A4
100
AcDbEntity
  8
2692.004
100
AcDbLine
 10
-22.29774543904857
 20
3.507730857472466
 30
0.0
 11
-23.14497488297369
 21
3.507730857472466
 31
0.0
1001
REVIT
1002
{
1070
     2
1000
-2001160
1002
}
  0
ARC
  5
2D5
330
2A4
100
AcDbEntity
  8
2692.004
100
AcDbCircle
 10
-33.46875000000022
 20
23.49999999999909
 30
0.0
 40
0.5
100
AcDbArc
 50
90.0
 51
180.0000000000002
  0
ARC
  5
2D6
330
2A4
100
AcDbEntity
  8
2692.004
100
AcDbCircle
 10
-25.75030651219864
 20
0.5000000000000107
 30
0.0
 40
0.5000000000000107
100
AcDbArc
 50
185.000000000001
 51
270.0000000000002
  0
LWPOLYLINE
  5
2D7
330
2A4
100
AcDbEntity
  8
2692.004
100
AcDbPolyline
 90
       36
 70
   128
 43
0.0
 10
-26.9375000000008
 20
3.507730857472466
 10
-26.93522583404181
 20
3.497993566444222
 10
-26.93256409938803
 20
3.488355006592737
 10
-26.9295190542471
 20
3.478830597557664
 10
-26.92609557004166
 20
3.469435576361689
 10
-26.92229912361611
 20
3.460184973034564
 10
-26.91813578847491
 20
3.451093586568255
 10
-26.91361222506615
 20
3.442175961241716
 10
-26.90873567012626
 20
3.433446363353141
 10
-26.90351392510292
 20
3.424918758396945
 10
-26.89795534367425
 20
3.416606788721921
 10
-26.89206881838475
 20
3.408523751706432
 10
-26.88586376641914
 20
3.400682578485405
 10
-26.87935011453694
 20
3.393095813263311
 10
-26.87253828319163
 20
3.385775593246076
 10
-26.86543916986025
 20
3.378733629224164
 10
-26.85806413160973
 20
3.371981186837803
 10
-26.850424966928
 20
3.365529068554369
 10
-26.842533896849
 20
3.359387596386735
 10
-26.83440354540145
 20
3.353566595380261
 10
-26.82604691941335
 20
3.348075377894808
 10
-26.81747738770358
 20
3.342922728706955
 10
-26.80870865969485
 20
3.338116890956229
 10
-26.79975476348134
 20
3.333665552957846
 10
-26.790630023387
 20
3.329575835903028
 10
-26.78134903704945
 20
3.325854282466643
 10
-26.77192665206699
 20
3.322506846340292
 10
-26.76237794224558
 20
3.319538882707703
 10
-26.75271818348401
 20
3.316955139677553
 10
-26.74296282933563
 20
3.314759750687525
 10
-26.73312748628606
 20
3.312956227891671
 10
-26.72322788878611
 20
3.311547456541738
 10
-26.71327987407991
 20
3.310535690371366
 10
-26.70329935686895
 20
3.309922547990588
 10
-26.69330230385163
 20
3.309709010296423
 10
-26.69296309981748
 20
3.309708780177565
1001
REVIT
1002
{
1070
     2
1000
-2001160
1002
}
  0
LWPOLYLINE
  5
2D8
330
2A4
100
AcDbEntity
  8
2692.004
100
AcDbPolyline
 90
       38
 70
   128
 43
0.0
 10
-26.6573352064793
 20
3.309708780177565
 10
-26.65618314549057
 20
3.30963957345023
 10
-26.64866048778355
 20
3.308884790055991
 10
-26.64117403068574
 20
3.307829784334941
 10
-26.63373575093145
 20
3.306476244071181
 10
-26.6263575481815
 20
3.304826334640395
 10
-26.61905122598643
 20
3.302882695545708
 10
-26.61182847290308
 20
3.30064843619505
 10
-26.60470084379567
 20
3.298127130926772
 10
-26.59767974135024
 20
3.295322813291445
 10
-26.59077639783299
 20
3.292239969599069
 10
-26.58400185712089
 20
3.288883531741905
 10
-26.57736695703392
 20
3.285258869304534
 10
-26.57088231199686
 20
3.281371780973628
 10
-26.56455829605847
 20
3.277228485261325
 10
-26.55840502629516
 20
3.272835610556892
 10
-26.55243234662593
 20
3.268200184522772
 10
-26.54664981206418
 20
3.263329622851781
 10
-26.54106667343164
 20
3.258231717403589
 10
-26.53569186255913
 20
3.252914623739425
 10
-26.53053397799747
 20
3.247386848074889
 10
-26.52560127126166
 20
3.241657233671858
 10
-26.52090163363026
 20
3.235734946691117
 10
-26.51644258352089
 20
3.229629461528485
 10
-26.51223125446254
 20
3.22335054565779
 10
-26.50827438368337
 20
3.216908244004997
 10
-26.50457830133248
 20
3.210312862878456
 10
-26.5011489203532
 20
3.203574953481037
 10
-26.49799172702354
 20
3.196705295030429
 10
-26.49511177217932
 20
3.18971487751471
 10
-26.49251366313393
 20
3.182614884110687
 10
-26.49020155630762
 20
3.175416673293227
 10
-26.4881791505781
 20
3.168131760664099
 10
-26.48644968136308
 20
3.160771800529481
 10
-26.4850159154444
 20
3.153348567255541
 10
-26.48388014654166
 20
3.145873936431989
 10
-26.48304419164283
 20
3.138359865873631
 10
-26.48298486600511
 20
3.137695282273142
1001
REVIT
1002
{
1070
     2
1000
-2001160
1002
}
  0
LWPOLYLINE
  5
2D9
330
2A4
100
AcDbEntity
  8
2692.004
100
AcDbPolyline
 90
        9
 70
   128
 43
0.0
 10
22.22880781100628
 20
3.309708780176801
 10
22.39261675051266
 20
3.309708780176801
 10
22.55807790564059
 20
3.309708780176801
 10
22.72492657383836
 20
3.309708780176801
 10
22.89289583282934
 20
3.309708780176801
 10
23.06171696763068
 20
3.309708780176801
 10
23.23111990043994
 20
3.309708780176801
 10
23.40083362270199
 20
3.309708780176801
 10
23.42538920963105
 20
3.309708780176801
1001
REVIT
1002
{
1070
     2
1000
-2001160
1002
}
  0
LINE
  5
2DA
330
2A4
100
AcDbEntity
  8
2692.004
100
AcDbLine
 10
25.43750000000081
 20
3.309708780176801
 30
0.0
 11
23.42538920963105
 21
3.309708780176801
 31
0.0
1001
REVIT
1002
{
1070
     2
1000
-2001160
1002
}
  0
LINE
  5
2DB
330
2A4
100
AcDbEntity
  8
2692.004
100
AcDbLine
 10
26.48298486600497
 20
3.137695282272378
 30
0.0
 11
26.24840386124452
 21
0.4564221286261727
 31
0.0
1001
REVIT
1002
{
1070
     2
1000
-2001160
1002
}
  0
LWPOLYLINE
  5
2DC
330
2A4
100
AcDbEntity
  8
2692.004
100
AcDbPolyline
 90
       41
 70
   128
 43
0.0
 10
26.69296309981735
 20
3.309708780176801
 10
26.69195886324643
 20
3.309708780176801
 10
26.68894776009792
 20
3.309708780176801
 10
26.68393460749455
 20
3.309708780176801
 10
26.67692742541105
 20
3.309708780176801
 10
26.66793742384397
 20
3.309708780176801
 10
26.65697898487807
 20
3.309708780176801
 10
26.64406963967799
 20
3.309708780176801
 10
26.62923004044225
 20
3.309708780176801
 10
26.61248392736397
 20
3.309708780176801
 10
26.59385809065178
 20
3.309708780176801
 10
26.57338232767112
 20
3.309708780176801
 10
26.55108939527483
 20
3.309708780176801
 10
26.52701495739916
 20
3.309708780176801
 10
26.50119752800912
 20
3.309708780176801
 10
26.47367840948431
 20
3.309708780176801
 10
26.44450162654393
 20
3.309708780176801
 10
26.41371385581662
 20
3.309708780176801
 10
26.38136435116788
 20
3.309708780176801
 10
26.34750486490425
 20
3.309708780176801
 10
26.31218956498079
 20
3.309708780176801
 10
26.27547494834384
 20
3.309708780176801
 10
26.23741975054802
 20
3.309708780176801
 10
26.19808485179176
 20
3.309708780176801
 10
26.15753317952208
 20
3.309708780176801
 10
26.11582960776405
 20
3.309708780176801
 10
26.0730408533362
 20
3.309708780176801
 10
26.02923536911783
 20
3.309708780176801
 10
25.98448323453903
 20
3.309708780176801
 10
25.93885604346849
 20
3.309708780176801
 10
25.89242678967865
 20
3.309708780176801
 10
25.84526975007121
 20
3.309708780176801
 10
25.79746036584989
 20
3.309708780176801
 10
25.74907512183067
 20
3.309708780176801
 10
25.70019142408233
 20
3.309708780176801
 10
25.6508874760933
 20
3.309708780176801
 10
25.60124215366277
 20
3.309708780176801
 10
25.55133487871617
 20
3.309708780176801
 10
25.5012454922471
 20
3.309708780176801
 10
25.45105412658876
 20
3.309708780176801
 10
25.43750000000081
 20
3.309708780176801
1001
REVIT
1002
{
1070
     2
1000
-2001160
1002
}
  0
LINE
  5
2DD
330
2A4
100
AcDbEntity
  8
2692.004
100
AcDbLine
 10
25.75030651219864
 20
0.0
 30
0.0
 11
-25.75030651219864
 21
0.0
 31
0.0
1001
REVIT
1002
{
1070
     2
1000
-2001160
1002
}
  0
LINE
  5
2DE
330
2A4
100
AcDbEntity
  8
2692.004
100
AcDbLine
 10
33.32846113499541
 20
22.24999999999801
 30
0.0
 11
26.93750000000081
 21
3.50773085747247
 31
0.0
1001
REVIT
1002
{
1070
     2
1000
-2001160
1002
}
  0
LINE
  5
2DF
330
2A4
100
AcDbEntity
  8
2692.004
100
AcDbLine
 10
25.51510964718218
 20
3.507730857472466
 30
0.0
 11
26.93750000000078
 21
3.507730857472466
 31
0.0
1001
REVIT
1002
{
1070
     2
1000
-2001160
1002
}
  0
LINE
  5
2E0
330
2A4
100
AcDbEntity
  8
2692.004
100
AcDbLine
 10
25.43750000000077
 20
3.507730857472466
 30
0.0
 11
25.51510964718218
 21
3.507730857472466
 31
0.0
1001
REVIT
1002
{
1070
     2
1000
-2001160
1002
}
  0
LINE
  5
2E1
330
2A4
100
AcDbEntity
  8
2692.004
100
AcDbLine
 10
23.42538920963104
 20
3.507730857471585
 30
0.0
 11
25.43750000000081
 21
3.507730857471585
 31
0.0
1001
REVIT
1002
{
1070
     2
1000
-2001160
1002
}
  0
LINE
  5
2E2
330
2A4
100
AcDbEntity
  8
2692.004
100
AcDbLine
 10
23.14497488297369
 20
3.507730857472466
 30
0.0
 11
23.42538920963102
 21
3.507730857472466
 31
0.0
1001
REVIT
1002
{
1070
     2
1000
-2001160
1002
}
  0
LINE
  5
2E3
330
2A4
100
AcDbEntity
  8
2692.004
100
AcDbLine
 10
22.29774543904858
 20
3.507730857472466
 30
0.0
 11
23.14497488297369
 21
3.507730857472466
 31
0.0
1001
REVIT
1002
{
1070
     2
1000
-2001160
1002
}
  0
ARC
  5
2E4
330
2A4
100
AcDbEntity
  8
2692.004
100
AcDbCircle
 10
33.46875000000023
 20
23.49999999999909
 30
0.0
 40
0.5
100
AcDbArc
 50
359.9999999999998
 51
90.0
  0
ARC
  5
2E5
330
2A4
100
AcDbEntity
  8
2692.004
100
AcDbCircle
 10
25.75030651219864
 20
0.5000000000000107
 30
0.0
 40
0.5000000000000107
100
AcDbArc
 50
269.9999999999998
 51
354.999999999999
  0
LWPOLYLINE
  5
2E6
330
2A4
100
AcDbEntity
  8
2692.004
100
AcDbPolyline
 90
       36
 70
   128
 43
0.0
 10
26.93750000000081
 20
3.507730857472466
 10
26.93522583404182
 20
3.497993566444222
 10
26.93256409938803
 20
3.488355006592737
 10
26.92951905424711
 20
3.478830597557664
 10
26.92609557004167
 20
3.469435576361689
 10
26.92229912361611
 20
3.460184973034564
 10
26.91813578847491
 20
3.451093586568255
 10
26.91361222506616
 20
3.442175961241716
 10
26.90873567012626
 20
3.433446363353141
 10
26.90351392510293
 20
3.424918758396945
 10
26.89795534367426
 20
3.416606788721921
 10
26.89206881838476
 20
3.408523751706432
 10
26.88586376641915
 20
3.400682578485405
 10
26.87935011453695
 20
3.393095813263311
 10
26.87253828319163
 20
3.385775593246076
 10
26.86543916986025
 20
3.378733629224164
 10
26.85806413160974
 20
3.371981186837803
 10
26.850424966928
 20
3.365529068554369
 10
26.84253389684901
 20
3.359387596386735
 10
26.83440354540146
 20
3.353566595380261
 10
26.82604691941336
 20
3.348075377894808
 10
26.81747738770359
 20
3.342922728706955
 10
26.80870865969486
 20
3.338116890956229
 10
26.79975476348135
 20
3.333665552957846
 10
26.79063002338701
 20
3.329575835903028
 10
26.78134903704946
 20
3.325854282466643
 10
26.771926652067
 20
3.322506846340292
 10
26.76237794224559
 20
3.319538882707703
 10
26.75271818348402
 20
3.316955139677553
 10
26.74296282933564
 20
3.314759750687525
 10
26.73312748628607
 20
3.312956227891671
 10
26.72322788878612
 20
3.311547456541738
 10
26.71327987407992
 20
3.310535690371366
 10
26.70329935686896
 20
3.309922547990588
 10
26.69330230385164
 20
3.309709010296423
 10
26.69296309981749
 20
3.309708780177565
1001
REVIT
1002
{
1070
     2
1000
-2001160
1002
}
  0
LWPOLYLINE
  5
2E7
330
2A4
100
AcDbEntity
  8
2692.004
100
AcDbPolyline
 90
       38
 70
   128
 43
0.0
 10
26.6573352064793
 20
3.309708780177565
 10
26.65618314549057
 20
3.30963957345023
 10
26.64866048778356
 20
3.308884790055991
 10
26.64117403068575
 20
3.307829784334941
 10
26.63373575093145
 20
3.306476244071181
 10
26.6263575481815
 20
3.304826334640395
 10
26.61905122598644
 20
3.302882695545708
 10
26.61182847290309
 20
3.30064843619505
 10
26.60470084379567
 20
3.298127130926772
 10
26.59767974135025
 20
3.295322813291445
 10
26.590776397833
 20
3.292239969599069
 10
26.5840018571209
 20
3.288883531741905
 10
26.57736695703393
 20
3.285258869304534
 10
26.57088231199687
 20
3.281371780973628
 10
26.56455829605848
 20
3.277228485261325
 10
26.55840502629516
 20
3.272835610556892
 10
26.55243234662594
 20
3.268200184522772
 10
26.54664981206419
 20
3.263329622851781
 10
26.54106667343164
 20
3.258231717403589
 10
26.53569186255913
 20
3.252914623739425
 10
26.53053397799748
 20
3.247386848074889
 10
26.52560127126167
 20
3.241657233671858
 10
26.52090163363026
 20
3.235734946691117
 10
26.5164425835209
 20
3.229629461528485
 10
26.51223125446255
 20
3.22335054565779
 10
26.50827438368337
 20
3.216908244004997
 10
26.50457830133249
 20
3.210312862878456
 10
26.50114892035321
 20
3.203574953481037
 10
26.49799172702355
 20
3.196705295030429
 10
26.49511177217933
 20
3.18971487751471
 10
26.49251366313393
 20
3.182614884110687
 10
26.49020155630763
 20
3.175416673293227
 10
26.48817915057811
 20
3.168131760664099
 10
26.48644968136308
 20
3.160771800529481
 10
26.48501591544441
 20
3.153348567255541
 10
26.48388014654166
 20
3.145873936431989
 10
26.48304419164283
 20
3.138359865873631
 10
26.48298486600511
 20
3.137695282273142
1001
REVIT
1002
{
1070
     2
1000
-2001160
1002
}
  0
ENDBLK
  5
2A6
330
2A4
100
AcDbEntity
  8
0
100
AcDbBlockEnd
  0
ENDSEC
  0
SECTION
  2
ENTITIES
  0
INSERT
  5
268
330
70
100
AcDbEntity
  8
2692.004
100
AcDbBlockReference
  2
AMSTD_Estate_2692.004_Side View
 10
-101.8226963508332
 20
-24.2935488102956
 30
0.0
  0
INSERT
  5
2A3
330
70
100
AcDbEntity
  8
2692.004
100
AcDbBlockReference
  2
AMSTD_Estate_2692.004_Plan View
 10
-2.273942853409891
 20
73.91632471252666
 30
0.0
  0
INSERT
  5
2E8
330
70
100
AcDbEntity
  8
2692.004
100
AcDbBlockReference
  2
AMSTD_Estate_2692.004_Front View
 10
-3.381123741479177
 20
-24.2935488102956
 30
0.0
  0
ENDSEC
  0
SECTION
  2
OBJECTS
  0
DICTIONARY
  5
C
330
0
100
AcDbDictionary
281
     1
  3
ACAD_BACKGROUND
350
198
  3
ACAD_CIP_PREVIOUS_PRODUCT_INFO
350
79
  3
ACAD_COLOR
350
63
  3
ACAD_DETAILVIEWSTYLE
350
6A
  3
ACAD_GROUP
350
D
  3
ACAD_IMAGE_VARS
350
7A
  3
ACAD_LAYOUT
350
62
  3
ACAD_MATERIAL
350
10
  3
ACAD_MLEADERSTYLE
350
66
  3
ACAD_MLINESTYLE
350
5F
  3
ACAD_PLOTSETTINGS
350
61
  3
ACAD_PLOTSTYLENAME
350
E
  3
ACAD_SCALELIST
350
42
  3
ACAD_SECTIONVIEWSTYLE
350
68
  3
ACAD_TABLESTYLE
350
64
  3
ACAD_VISUALSTYLE
350
29
  3
ACDB_RECOMPOSE_DATA
350
2EE
  3
AcDbVariableDictionary
350
CA
  3
REVIT_DICTIONARY
350
C0
  0
DICTIONARY
  5
C3
330
70
100
AcDbDictionary
280
     1
281
     1
  3
ACAD_SORTENTS
360
C4
  0
DICTIONARY
  5
198
102
{ACAD_REACTORS
330
C
102
}
330
C
100
AcDbDictionary
281
     1
  0
XRECORD
  5
79
102
{ACAD_REACTORS
330
C
102
}
330
C
100
AcDbXrecord
280
     1
300
ACD
300
2014
300
86063ACD_2014_0F
  0
DICTIONARY
  5
63
102
{ACAD_REACTORS
330
C
102
}
330
C
100
AcDbDictionary
281
     1
  0
DICTIONARY
  5
6A
102
{ACAD_REACTORS
330
C
102
}
330
C
100
AcDbDictionary
281
     1
  3
Imperial24
350
6B
  0
DICTIONARY
  5
D
102
{ACAD_REACTORS
330
C
102
}
330
C
100
AcDbDictionary
281
     1
  0
RASTERVARIABLES
  5
7A
102
{ACAD_REACTORS
330
C
102
}
330
C
100
AcDbRasterVariables
 90
        0
 70
     0
 71
     1
 72
     5
  0
DICTIONARY
  5
62
102
{ACAD_REACTORS
330
C
102
}
330
C
100
AcDbDictionary
281
     1
  3
Layout1
350
6F
  3
Layout2
350
77
  3
Model
350
73
  0
DICTIONARY
  5
10
102
{ACAD_REACTORS
330
C
102
}
330
C
100
AcDbDictionary
281
     1
  3
ByBlock
350
19
  3
ByLayer
350
11
  3
Global
350
21
  0
DICTIONARY
  5
66
102
{ACAD_REACTORS
330
C
102
}
330
C
100
AcDbDictionary
281
     1
  3
Standard
350
67
  0
DICTIONARY
  5
5F
102
{ACAD_REACTORS
330
C
102
}
330
C
100
AcDbDictionary
281
     1
  3
Standard
350
60
  0
DICTIONARY
  5
61
102
{ACAD_REACTORS
330
C
102
}
330
C
100
AcDbDictionary
281
     1
  0
ACDBDICTIONARYWDFLT
  5
E
102
{ACAD_REACTORS
330
C
102
}
330
C
100
AcDbDictionary
281
     1
  3
Normal
350
F
100
AcDbDictionaryWithDefault
340
F
  0
DICTIONARY
  5
42
102
{ACAD_REACTORS
330
C
102
}
330
C
100
AcDbDictionary
281
     1
  3
A0
350
43
  3
A1
350
44
  3
A2
350
45
  3
A3
350
46
  3
A4
350
47
  3
A5
350
48
  3
A6
350
49
  3
A7
350
4A
  3
A8
350
4B
  3
A9
350
4C
  3
B0
350
4D
  3
B1
350
4E
  3
B2
350
4F
  3
B3
350
50
  3
B4
350
51
  3
B5
350
52
  3
B6
350
53
  0
DICTIONARY
  5
68
102
{ACAD_REACTORS
330
C
102
}
330
C
100
AcDbDictionary
281
     1
  3
Imperial24
350
69
  0
DICTIONARY
  5
64
102
{ACAD_REACTORS
330
C
102
}
330
C
100
AcDbDictionary
281
     1
  3
Standard
350
65
  0
DICTIONARY
  5
29
102
{ACAD_REACTORS
330
C
102
}
330
C
100
AcDbDictionary
281
     1
  3
2dWireframe
350
2F
  3
Basic
350
2E
  3
Brighten
350
35
  3
ColorChange
350
39
  3
Conceptual
350
32
  3
Dim
350
34
  3
EdgeColorOff
350
41
  3
Facepattern
350
38
  3
Flat
350
2A
  3
FlatWithEdges
350
2B
  3
Gouraud
350
2C
  3
GouraudWithEdges
350
2D
  3
Hidden
350
31
  3
JitterOff
350
3F
  3
Linepattern
350
37
  3
OverhangOff
350
40
  3
Realistic
350
33
  3
Shaded
350
3E
  3
Shaded with edges
350
3D
  3
Shades of Gray
350
3A
  3
Sketchy
350
3B
  3
Thicken
350
36
  3
Wireframe
350
30
  3
X-Ray
350
3C
  0
XRECORD
  5
2EE
102
{ACAD_REACTORS
330
C
102
}
330
C
100
AcDbXrecord
280
     1
 90
        1
330
65
  0
DICTIONARY
  5
CA
102
{ACAD_REACTORS
330
C
102
}
330
C
100
AcDbDictionary
281
     1
  3
CANNOSCALE
350
CF
  3
CMLEADERSTYLE
350
CC
  3
CTABLESTYLE
350
CB
  3
CVIEWDETAILSTYLE
350
CD
  3
CVIEWSECTIONSTYLE
350
CE
  0
DICTIONARY
  5
C0
102
{ACAD_REACTORS
330
C
102
}
330
C
100
AcDbDictionary
281
     1
  3
DRAWING_TOOL
350
C2
  3
REVIT_CATEGORY_MAPPING
350
C1
  0
SORTENTSTABLE
  5
C4
102
{ACAD_REACTORS
330
C3
102
}
330
C3
100
AcDbSortentsTable
330
70
  0
ACDBDETAILVIEWSTYLE
  5
6B
102
{ACAD_XDICTIONARY
360
C7
102
}
102
{ACAD_REACTORS
330
6A
102
}
330
6A
100
AcDbModelDocViewStyle
 70
     0
  3
Imperial24
290
     0
100
AcDbDetailViewStyle
 70
     0
 71
     0
 90
        3
 71
     1
340
55
 62
   256
 40
0.24
340
0
 62
   256
 40
0.24
300

 40
0.36
280
     3
 71
     2
340
5D
 90
       25
 62
   256
 71
     3
340
55
 62
   256
 40
0.24
 90
        1
 40
0.75
 90
        1
300
%<\AcVar ViewType \f "%tc1">% %<\AcVar ViewDetailId>%\PSCALE %<\AcVar ViewScale \f "%sn">%
 71
     4
340
5D
 90
       25
 62
   256
340
5D
 90
       25
 62
   256
280
     0
  0
LAYOUT
  5
6F
102
{ACAD_REACTORS
330
62
102
}
330
62
100
AcDbPlotSettings
  1

  2

  4

  6

 40
0.0
 41
0.0
 42
0.0
 43
0.0
 44
0.0
 45
0.0
 46
0.0
 47
0.0
 48
0.0
 49
0.0
140
0.0
141
0.0
142
1.0
143
1.0
 70
   688
 72
     0
 73
     0
 74
     5
  7

 75
    16
147
1.0
 76
     0
 77
     2
 78
   300
148
0.0
149
0.0
100
AcDbLayout
  1
Layout1
 70
     1
 71
     1
 10
0.0
 20
0.0
 11
12.0
 21
9.0
 12
0.0
 22
0.0
 32
0.0
 14
1.000000000000000E+20
 24
1.000000000000000E+20
 34
1.000000000000000E+20
 15
-1.000000000000000E+20
 25
-1.000000000000000E+20
 35
-1.000000000000000E+20
146
0.0
 13
0.0
 23
0.0
 33
0.0
 16
1.0
 26
0.0
 36
0.0
 17
0.0
 27
1.0
 37
0.0
 76
     0
330
6C
  0
LAYOUT
  5
77
102
{ACAD_REACTORS
330
62
102
}
330
62
100
AcDbPlotSettings
  1

  2

  4

  6

 40
0.0
 41
0.0
 42
0.0
 43
0.0
 44
0.0
 45
0.0
 46
0.0
 47
0.0
 48
0.0
 49
0.0
140
0.0
141
0.0
142
1.0
143
1.0
 70
   688
 72
     0
 73
     0
 74
     5
  7

 75
    16
147
1.0
 76
     0
 77
     2
 78
   300
148
0.0
149
0.0
100
AcDbLayout
  1
Layout2
 70
     1
 71
     2
 10
0.0
 20
0.0
 11
12.0
 21
9.0
 12
0.0
 22
0.0
 32
0.0
 14
0.0
 24
0.0
 34
0.0
 15
0.0
 25
0.0
 35
0.0
146
0.0
 13
0.0
 23
0.0
 33
0.0
 16
1.0
 26
0.0
 36
0.0
 17
0.0
 27
1.0
 37
0.0
 76
     0
330
74
  0
LAYOUT
  5
73
102
{ACAD_REACTORS
330
62
102
}
330
62
100
AcDbPlotSettings
  1

  2

  4

  6

 40
0.0
 41
0.0
 42
0.0
 43
0.0
 44
0.0
 45
0.0
 46
0.0
 47
0.0
 48
0.0
 49
0.0
140
0.0
141
0.0
142
1.0
143
1.0
 70
  1712
 72
     0
 73
     0
 74
     0
  7

 75
     0
147
1.0
 76
     0
 77
     2
 78
   300
148
0.0
149
0.0
100
AcDbLayout
  1
Model
 70
     1
 71
     0
 10
0.0
 20
0.0
 11
12.0
 21
9.0
 12
0.0
 22
0.0
 32
0.0
 14
0.0
 24
0.0
 34
0.0
 15
0.0
 25
0.0
 35
0.0
146
0.0
 13
0.0
 23
0.0
 33
0.0
 16
1.0
 26
0.0
 36
0.0
 17
0.0
 27
1.0
 37
0.0
 76
     0
330
70
331
57
  0
MATERIAL
  5
19
102
{ACAD_XDICTIONARY
360
1A
102
}
102
{ACAD_REACTORS
330
10
102
}
330
10
100
AcDbMaterial
  1
ByBlock
 72
     0
 43
0.0208333333333333
 43
0.0
 43
0.0
 43
0.0
 43
0.0
 43
0.0208333333333333
 43
0.0
 43
0.0
 43
0.0
 43
0.0
 43
1.0
 43
0.0
 43
0.0
 43
0.0
 43
0.0
 43
1.0
 77
     0
 47
0.0208333333333333
 47
0.0
 47
0.0
 47
0.0
 47
0.0
 47
0.0208333333333333
 47
0.0
 47
0.0
 47
0.0
 47
0.0
 47
1.0
 47
0.0
 47
0.0
 47
0.0
 47
0.0
 47
1.0
171
     0
 49
0.0208333333333333
 49
0.0
 49
0.0
 49
0.0
 49
0.0
 49
0.0208333333333333
 49
0.0
 49
0.0
 49
0.0
 49
0.0
 49
1.0
 49
0.0
 49
0.0
 49
0.0
 49
0.0
 49
1.0
175
     0
142
0.0208333333333333
142
0.0
142
0.0
142
0.0
142
0.0
142
0.0208333333333333
142
0.0
142
0.0
142
0.0
142
0.0
142
1.0
142
0.0
142
0.0
142
0.0
142
0.0
142
1.0
179
     0
144
0.0208333333333333
144
0.0
144
0.0
144
0.0
144
0.0
144
0.0208333333333333
144
0.0
144
0.0
144
0.0
144
0.0
144
1.0
144
0.0
144
0.0
144
0.0
144
0.0
144
1.0
147
0.0208333333333333
147
0.0
147
0.0
147
0.0
147
0.0
147
0.0208333333333333
147
0.0
147
0.0
147
0.0
147
0.0
147
1.0
147
0.0
147
0.0
147
0.0
147
0.0
147
1.0
  0
MATERIAL
  5
11
102
{ACAD_XDICTIONARY
360
12
102
}
102
{ACAD_REACTORS
330
10
102
}
330
10
100
AcDbMaterial
  1
ByLayer
 72
     0
 43
0.0208333333333333
 43
0.0
 43
0.0
 43
0.0
 43
0.0
 43
0.0208333333333333
 43
0.0
 43
0.0
 43
0.0
 43
0.0
 43
1.0
 43
0.0
 43
0.0
 43
0.0
 43
0.0
 43
1.0
 77
     0
 47
0.0208333333333333
 47
0.0
 47
0.0
 47
0.0
 47
0.0
 47
0.0208333333333333
 47
0.0
 47
0.0
 47
0.0
 47
0.0
 47
1.0
 47
0.0
 47
0.0
 47
0.0
 47
0.0
 47
1.0
171
     0
 49
0.0208333333333333
 49
0.0
 49
0.0
 49
0.0
 49
0.0
 49
0.0208333333333333
 49
0.0
 49
0.0
 49
0.0
 49
0.0
 49
1.0
 49
0.0
 49
0.0
 49
0.0
 49
0.0
 49
1.0
175
     0
142
0.0208333333333333
142
0.0
142
0.0
142
0.0
142
0.0
142
0.0208333333333333
142
0.0
142
0.0
142
0.0
142
0.0
142
1.0
142
0.0
142
0.0
142
0.0
142
0.0
142
1.0
179
     0
144
0.0208333333333333
144
0.0
144
0.0
144
0.0
144
0.0
144
0.0208333333333333
144
0.0
144
0.0
144
0.0
144
0.0
144
1.0
144
0.0
144
0.0
144
0.0
144
0.0
144
1.0
147
0.0208333333333333
147
0.0
147
0.0
147
0.0
147
0.0
147
0.0208333333333333
147
0.0
147
0.0
147
0.0
147
0.0
147
1.0
147
0.0
147
0.0
147
0.0
147
0.0
147
1.0
  0
MATERIAL
  5
21
102
{ACAD_XDICTIONARY
360
22
102
}
102
{ACAD_REACTORS
330
10
102
}
330
10
100
AcDbMaterial
  1
Global
 72
     0
 43
0.0208333333333333
 43
0.0
 43
0.0
 43
0.0
 43
0.0
 43
0.0208333333333333
 43
0.0
 43
0.0
 43
0.0
 43
0.0
 43
1.0
 43
0.0
 43
0.0
 43
0.0
 43
0.0
 43
1.0
 77
     0
 47
0.0208333333333333
 47
0.0
 47
0.0
 47
0.0
 47
0.0
 47
0.0208333333333333
 47
0.0
 47
0.0
 47
0.0
 47
0.0
 47
1.0
 47
0.0
 47
0.0
 47
0.0
 47
0.0
 47
1.0
171
     0
 49
0.0208333333333333
 49
0.0
 49
0.0
 49
0.0
 49
0.0
 49
0.0208333333333333
 49
0.0
 49
0.0
 49
0.0
 49
0.0
 49
1.0
 49
0.0
 49
0.0
 49
0.0
 49
0.0
 49
1.0
175
     0
142
0.0208333333333333
142
0.0
142
0.0
142
0.0
142
0.0
142
0.0208333333333333
142
0.0
142
0.0
142
0.0
142
0.0
142
1.0
142
0.0
142
0.0
142
0.0
142
0.0
142
1.0
179
     0
144
0.0208333333333333
144
0.0
144
0.0
144
0.0
144
0.0
144
0.0208333333333333
144
0.0
144
0.0
144
0.0
144
0.0
144
1.0
144
0.0
144
0.0
144
0.0
144
0.0
144
1.0
147
0.0208333333333333
147
0.0
147
0.0
147
0.0
147
0.0
147
0.0208333333333333
147
0.0
147
0.0
147
0.0
147
0.0
147
1.0
147
0.0
147
0.0
147
0.0
147
0.0
147
1.0
  0
MLEADERSTYLE
  5
67
102
{ACAD_XDICTIONARY
360
31F
102
}
102
{ACAD_REACTORS
330
66
102
}
330
66
100
AcDbMLeaderStyle
179
     2
170
     2
171
     1
172
     0
 90
        2
 40
0.0
 41
0.0
173
     1
 91
-1056964608
340
5B
 92
       -2
290
     1
 42
0.09
291
     1
 43
0.36
  3
Standard
 44
0.18
300

342
55
174
     1
178
     6
175
     1
176
     0
 93
-1056964608
 45
0.18
292
     0
297
     0
 46
0.18
 94
-1056964608
 47
1.0
 49
1.0
140
1.0
293
     1
141
0.0
294
     1
177
     0
142
1.0
295
     0
296
     0
143
0.125
271
     0
272
     9
273
     9
  0
MLINESTYLE
  5
60
102
{ACAD_REACTORS
330
5F
102
}
330
5F
100
AcDbMlineStyle
  2
STANDARD
 70
     0
  3

 62
   256
 51
90.0
 52
90.0
 71
     2
 49
0.5
 62
   256
  6
BYLAYER
 49
-0.5
 62
   256
  6
BYLAYER
  0
ACDBPLACEHOLDER
  5
F
102
{ACAD_REACTORS
330
E
102
}
330
E
  0
SCALE
  5
43
102
{ACAD_REACTORS
330
42
102
}
330
42
100
AcDbScale
 70
     0
300
1:1
140
1.0
141
1.0
290
     1
  0
SCALE
  5
44
102
{ACAD_REACTORS
330
42
102
}
330
42
100
AcDbScale
 70
     0
300
1/128" = 1'-0"
140
0.0078125
141
12.0
290
     0
  0
SCALE
  5
45
102
{ACAD_REACTORS
330
42
102
}
330
42
100
AcDbScale
 70
     0
300
1/64" = 1'-0"
140
0.015625
141
12.0
290
     0
  0
SCALE
  5
46
102
{ACAD_REACTORS
330
42
102
}
330
42
100
AcDbScale
 70
     0
300
1/32" = 1'-0"
140
0.03125
141
12.0
290
     0
  0
SCALE
  5
47
102
{ACAD_REACTORS
330
42
102
}
330
42
100
AcDbScale
 70
     0
300
1/16" = 1'-0"
140
0.0625
141
12.0
290
     0
  0
SCALE
  5
48
102
{ACAD_REACTORS
330
42
102
}
330
42
100
AcDbScale
 70
     0
300
3/32" = 1'-0"
140
0.09375
141
12.0
290
     0
  0
SCALE
  5
49
102
{ACAD_REACTORS
330
42
102
}
330
42
100
AcDbScale
 70
     0
300
1/8" = 1'-0"
140
0.125
141
12.0
290
     0
  0
SCALE
  5
4A
102
{ACAD_REACTORS
330
42
102
}
330
42
100
AcDbScale
 70
     0
300
3/16" = 1'-0"
140
0.1875
141
12.0
290
     0
  0
SCALE
  5
4B
102
{ACAD_REACTORS
330
42
102
}
330
42
100
AcDbScale
 70
     0
300
1/4" = 1'-0"
140
0.25
141
12.0
290
     0
  0
SCALE
  5
4C
102
{ACAD_REACTORS
330
42
102
}
330
42
100
AcDbScale
 70
     0
300
3/8" = 1'-0"
140
0.375
141
12.0
290
     0
  0
SCALE
  5
4D
102
{ACAD_REACTORS
330
42
102
}
330
42
100
AcDbScale
 70
     0
300
1/2" = 1'-0"
140
0.5
141
12.0
290
     0
  0
SCALE
  5
4E
102
{ACAD_REACTORS
330
42
102
}
330
42
100
AcDbScale
 70
     0
300
3/4" = 1'-0"
140
0.75
141
12.0
290
     0
  0
SCALE
  5
4F
102
{ACAD_REACTORS
330
42
102
}
330
42
100
AcDbScale
 70
     0
300
1" = 1'-0"
140
1.0
141
12.0
290
     0
  0
SCALE
  5
50
102
{ACAD_REACTORS
330
42
102
}
330
42
100
AcDbScale
 70
     0
300
1-1/2" = 1'-0"
140
1.5
141
12.0
290
     0
  0
SCALE
  5
51
102
{ACAD_REACTORS
330
42
102
}
330
42
100
AcDbScale
 70
     0
300
3" = 1'-0"
140
3.0
141
12.0
290
     0
  0
SCALE
  5
52
102
{ACAD_REACTORS
330
42
102
}
330
42
100
AcDbScale
 70
     0
300
6" = 1'-0"
140
6.0
141
12.0
290
     0
  0
SCALE
  5
53
102
{ACAD_REACTORS
330
42
102
}
330
42
100
AcDbScale
 70
     0
300
1'-0" = 1'-0"
140
12.0
141
12.0
290
     0
  0
ACDBSECTIONVIEWSTYLE
  5
69
102
{ACAD_XDICTIONARY
360
C5
102
}
102
{ACAD_REACTORS
330
68
102
}
330
68
100
AcDbModelDocViewStyle
 70
     0
  3
Imperial24
290
     0
100
AcDbSectionViewStyle
 70
     0
 71
     0
 90
       78
 71
     1
340
55
 62
   256
 40
0.24
340
0
340
0
 62
   256
 40
0.24
300
I, O, Q, S, X, Z
 40
0.48
 90
        3
 40
0.18
 90
        1
 71
     2
340
5D
 90
       25
 62
   256
340
5D
 90
       50
 62
   256
 40
0.24
 40
0.0
 40
0.24
 71
     3
340
55
 62
   256
 40
0.24
 90
        1
 40
0.75
 90
        1
300
%<\AcVar ViewType \f "%tc1">% %<\AcVar ViewSectionStartId>%-%<\AcVar ViewSectionEndId>%\PSCALE %<\AcVar ViewScale \f "%sn">%
 71
     4
 62
   256
 62
   257
300
ANSI31
 40
1.0
 90
        0
290
     0
290
     0
 90
        6
 40
0.0
 40
1.570796326794896
 40
0.2617993877991494
 40
1.308996938995747
 40
-0.2617993877991494
 40
1.832595714594046
  0
TABLESTYLE
  5
65
102
{ACAD_XDICTIONARY
360
2EC
102
}
102
{ACAD_REACTORS
330
64
102
}
330
64
100
AcDbTableStyle
280
     0
  3
Standard
 70
     0
 71
     0
 40
0.06
 41
0.06
280
     0
281
     0
  7
Standard
140
0.18
170
     2
 62
     0
 63
     7
283
     0
 90
      512
 91
        0
  1

274
    -2
284
     1
 64
     0
275
    -2
285
     1
 65
     0
276
    -2
286
     1
 66
     0
277
    -2
287
     1
 67
     0
278
    -2
288
     1
 68
     0
279
    -2
289
     1
 69
     0
  7
Standard
140
0.25
170
     5
 62
     0
 63
     7
283
     0
 90
      512
 91
        0
  1

274
    -2
284
     1
 64
     0
275
    -2
285
     1
 65
     0
276
    -2
286
     1
 66
     0
277
    -2
287
     1
 67
     0
278
    -2
288
     1
 68
     0
279
    -2
289
     1
 69
     0
  7
Standard
140
0.18
170
     5
 62
     0
 63
     7
283
     0
 90
      512
 91
        0
  1

274
    -2
284
     1
 64
     0
275
    -2
285
     1
 65
     0
276
    -2
286
     1
 66
     0
277
    -2
287
     1
 67
     0
278
    -2
288
     1
 68
     0
279
    -2
289
     1
 69
     0
  0
VISUALSTYLE
  5
2F
102
{ACAD_XDICTIONARY
360
2F9
102
}
102
{ACAD_REACTORS
330
29
102
}
330
29
100
AcDbVisualStyle
  2
2dWireframe
 70
     4
177
     2
291
     0
 71
     0
176
     1
 72
     2
176
     1
 73
     0
176
     1
 90
        0
176
     1
 40
0.6
176
     1
 41
30.0
176
     1
 63
     7
421
 16777215
176
     1
 74
     1
176
     1
 91
        4
176
     1
 64
     7
176
     1
 65
   257
176
     1
 75
     1
176
     1
175
     1
176
     1
 42
1.0
176
     1
 92
        0
176
     1
 66
   257
176
     1
 43
1.0
176
     1
 76
     1
176
     1
 77
     6
176
     1
 78
     2
176
     1
 67
     7
176
     1
 79
     5
176
     1
170
     0
176
     1
171
     0
176
     1
290
     0
176
     1
 93
        1
176
     1
 44
0.0
176
     1
173
     0
176
     1
1001
ACAD
1000
AcDbSavedByObjectVersion
1070
     0
  0
VISUALSTYLE
  5
2E
102
{ACAD_XDICTIONARY
360
2F7
102
}
102
{ACAD_REACTORS
330
29
102
}
330
29
100
AcDbVisualStyle
  2
Basic
 70
     7
177
     2
291
     1
 71
     1
176
     1
 72
     0
176
     1
 73
     1
176
     1
 90
        0
176
     1
 40
0.6
176
     1
 41
30.0
176
     1
 63
     7
421
 16777215
176
     1
 74
     0
176
     1
 91
        4
176
     1
 64
     7
176
     1
 65
   257
176
     1
 75
     1
176
     1
175
     1
176
     1
 42
1.0
176
     1
 92
        8
176
     1
 66
     7
176
     1
 43
1.0
176
     1
 76
     1
176
     1
 77
     6
176
     1
 78
     2
176
     1
 67
     7
176
     1
 79
     5
176
     1
170
     0
176
     1
171
     0
176
     1
290
     0
176
     1
 93
        1
176
     1
 44
0.0
176
     1
173
     0
176
     1
1001
ACAD
1000
AcDbSavedByObjectVersion
1070
     0
  0
VISUALSTYLE
  5
35
102
{ACAD_XDICTIONARY
360
305
102
}
102
{ACAD_REACTORS
330
29
102
}
330
29
100
AcDbVisualStyle
  2
Brighten
 70
    12
177
     2
291
     1
 71
     2
176
     1
 72
     2
176
     1
 73
     0
176
     1
 90
        0
176
     1
 40
0.6
176
     1
 41
30.0
176
     1
 63
     7
421
 16777215
176
     1
 74
     1
176
     1
 91
        4
176
     1
 64
     7
176
     1
 65
   257
176
     1
 75
     1
176
     1
175
     1
176
     1
 42
1.0
176
     1
 92
        8
176
     1
 66
     7
176
     1
 43
1.0
176
     1
 76
     1
176
     1
 77
     6
176
     1
 78
     2
176
     1
 67
     7
176
     1
 79
     5
176
     1
170
     0
176
     1
171
     0
176
     1
290
     0
176
     1
 93
        1
176
     1
 44
50.0
176
     1
173
     0
176
     1
1001
ACAD
1000
AcDbSavedByObjectVersion
1070
     0
  0
VISUALSTYLE
  5
39
102
{ACAD_XDICTIONARY
360
30D
102
}
102
{ACAD_REACTORS
330
29
102
}
330
29
100
AcDbVisualStyle
  2
ColorChange
 70
    16
177
     2
291
     1
 71
     2
176
     1
 72
     2
176
     1
 73
     3
176
     1
 90
        0
176
     1
 40
0.6
176
     1
 41
30.0
176
     1
 63
     8
421
  8421504
176
     1
 74
     1
176
     1
 91
        4
176
     1
 64
     7
176
     1
 65
   257
176
     1
 75
     1
176
     1
175
     1
176
     1
 42
1.0
176
     1
 92
        8
176
     1
 66
     8
424
  8421504
176
     1
 43
1.0
176
     1
 76
     1
176
     1
 77
     6
176
     1
 78
     2
176
     1
 67
     7
176
     1
 79
     5
176
     1
170
     0
176
     1
171
     0
176
     1
290
     0
176
     1
 93
        1
176
     1
 44
0.0
176
     1
173
     0
176
     1
1001
ACAD
1000
AcDbSavedByObjectVersion
1070
     0
  0
VISUALSTYLE
  5
32
102
{ACAD_XDICTIONARY
360
2FF
102
}
102
{ACAD_REACTORS
330
29
102
}
330
29
100
AcDbVisualStyle
  2
Conceptual
 70
     9
177
     2
291
     0
 71
     3
176
     1
 72
     2
176
     1
 73
     0
176
     1
 90
        0
176
     1
 40
0.6
176
     1
 41
30.0
176
     1
 63
     7
421
 16777215
176
     1
 74
     2
176
     1
 91
        2
176
     1
 64
     7
176
     1
 65
   257
176
     1
 75
     1
176
     1
175
     1
176
     1
 42
179.0
176
     1
 92
        8
176
     1
 66
     7
176
     1
 43
1.0
176
     1
 76
     1
176
     1
 77
     6
176
     1
 78
     2
176
     1
 67
     7
176
     1
 79
     3
176
     1
170
     0
176
     1
171
     0
176
     1
290
     0
176
     1
 93
        1
176
     1
 44
0.0
176
     1
173
     0
176
     1
1001
ACAD
1000
AcDbSavedByObjectVersion
1070
     0
  0
VISUALSTYLE
  5
34
102
{ACAD_XDICTIONARY
360
303
102
}
102
{ACAD_REACTORS
330
29
102
}
330
29
100
AcDbVisualStyle
  2
Dim
 70
    11
177
     2
291
     1
 71
     2
176
     1
 72
     2
176
     1
 73
     0
176
     1
 90
        0
176
     1
 40
0.6
176
     1
 41
30.0
176
     1
 63
     7
421
 16777215
176
     1
 74
     1
176
     1
 91
        4
176
     1
 64
     7
176
     1
 65
   257
176
     1
 75
     1
176
     1
175
     1
176
     1
 42
1.0
176
     1
 92
        8
176
     1
 66
     7
176
     1
 43
1.0
176
     1
 76
     1
176
     1
 77
     6
176
     1
 78
     2
176
     1
 67
     7
176
     1
 79
     5
176
     1
170
     0
176
     1
171
     0
176
     1
290
     0
176
     1
 93
        1
176
     1
 44
-50.0
176
     1
173
     0
176
     1
1001
ACAD
1000
AcDbSavedByObjectVersion
1070
     0
  0
VISUALSTYLE
  5
41
102
{ACAD_XDICTIONARY
360
31D
102
}
102
{ACAD_REACTORS
330
29
102
}
330
29
100
AcDbVisualStyle
  2
EdgeColorOff
 70
    22
177
     2
291
     1
 71
     2
176
     0
 72
     2
176
     0
 73
     0
176
     0
 90
        0
176
     0
 40
0.6
176
     0
 41
30.0
176
     0
 63
     7
421
 16777215
176
     0
 74
     1
176
     0
 91
        4
176
     0
 64
     7
176
     0
 65
   257
176
     0
 75
     1
176
     0
175
     1
176
     0
 42
1.0
176
     0
 92
        8
176
     2
 66
     7
176
     0
 43
1.0
176
     0
 76
     1
176
     0
 77
     6
176
     0
 78
     2
176
     0
 67
     7
176
     0
 79
     5
176
     0
170
     0
176
     0
171
     0
176
     0
290
     0
176
     0
 93
        1
176
     0
 44
0.0
176
     0
173
     0
176
     0
1001
ACAD
1000
AcDbSavedByObjectVersion
1070
     0
  0
VISUALSTYLE
  5
38
102
{ACAD_XDICTIONARY
360
30B
102
}
102
{ACAD_REACTORS
330
29
102
}
330
29
100
AcDbVisualStyle
  2
Facepattern
 70
    15
177
     2
291
     1
 71
     2
176
     1
 72
     2
176
     1
 73
     0
176
     1
 90
        0
176
     1
 40
0.6
176
     1
 41
30.0
176
     1
 63
     7
421
 16777215
176
     1
 74
     1
176
     1
 91
        4
176
     1
 64
     7
176
     1
 65
   257
176
     1
 75
     1
176
     1
175
     1
176
     1
 42
1.0
176
     1
 92
        8
176
     1
 66
     7
176
     1
 43
1.0
176
     1
 76
     1
176
     1
 77
     6
176
     1
 78
     2
176
     1
 67
     7
176
     1
 79
     5
176
     1
170
     0
176
     1
171
     0
176
     1
290
     0
176
     1
 93
        1
176
     1
 44
0.0
176
     1
173
     0
176
     1
1001
ACAD
1000
AcDbSavedByObjectVersion
1070
     0
  0
VISUALSTYLE
  5
2A
102
{ACAD_XDICTIONARY
360
2EF
102
}
102
{ACAD_REACTORS
330
29
102
}
330
29
100
AcDbVisualStyle
  2
Flat
 70
     0
177
     2
291
     1
 71
     2
176
     1
 72
     1
176
     1
 73
     1
176
     1
 90
        2
176
     1
 40
0.6
176
     1
 41
30.0
176
     1
 63
     7
421
 16777215
176
     1
 74
     0
176
     1
 91
        0
176
     1
 64
     7
176
     1
 65
   257
176
     1
 75
     1
176
     1
175
     1
176
     1
 42
1.0
176
     1
 92
        8
176
     1
 66
     7
176
     1
 43
1.0
176
     1
 76
     1
176
     1
 77
     6
176
     1
 78
     2
176
     1
 67
     7
176
     1
 79
     5
176
     1
170
     0
176
     1
171
     0
176
     1
290
     0
176
     1
 93
       13
176
     1
 44
0.0
176
     1
173
     0
176
     1
1001
ACAD
1000
AcDbSavedByObjectVersion
1070
     0
  0
VISUALSTYLE
  5
2B
102
{ACAD_XDICTIONARY
360
2F1
102
}
102
{ACAD_REACTORS
330
29
102
}
330
29
100
AcDbVisualStyle
  2
FlatWithEdges
 70
     1
177
     2
291
     1
 71
     2
176
     1
 72
     1
176
     1
 73
     1
176
     1
 90
        2
176
     1
 40
0.6
176
     1
 41
30.0
176
     1
 63
     7
421
 16777215
176
     1
 74
     1
176
     1
 91
        0
176
     1
 64
     7
176
     1
 65
   257
176
     1
 75
     1
176
     1
175
     1
176
     1
 42
1.0
176
     1
 92
        0
176
     1
 66
   257
176
     1
 43
1.0
176
     1
 76
     1
176
     1
 77
     6
176
     1
 78
     2
176
     1
 67
     7
176
     1
 79
     5
176
     1
170
     0
176
     1
171
     0
176
     1
290
     0
176
     1
 93
       13
176
     1
 44
0.0
176
     1
173
     0
176
     1
1001
ACAD
1000
AcDbSavedByObjectVersion
1070
     0
  0
VISUALSTYLE
  5
2C
102
{ACAD_XDICTIONARY
360
2F3
102
}
102
{ACAD_REACTORS
330
29
102
}
330
29
100
AcDbVisualStyle
  2
Gouraud
 70
     2
177
     2
291
     1
 71
     2
176
     1
 72
     2
176
     1
 73
     1
176
     1
 90
        2
176
     1
 40
0.6
176
     1
 41
30.0
176
     1
 63
     7
421
 16777215
176
     1
 74
     0
176
     1
 91
        0
176
     1
 64
     7
176
     1
 65
   257
176
     1
 75
     1
176
     1
175
     1
176
     1
 42
1.0
176
     1
 92
        0
176
     1
 66
     7
176
     1
 43
1.0
176
     1
 76
     1
176
     1
 77
     6
176
     1
 78
     2
176
     1
 67
     7
176
     1
 79
     5
176
     1
170
     0
176
     1
171
     0
176
     1
290
     0
176
     1
 93
       13
176
     1
 44
0.0
176
     1
173
     0
176
     1
1001
ACAD
1000
AcDbSavedByObjectVersion
1070
     0
  0
VISUALSTYLE
  5
2D
102
{ACAD_XDICTIONARY
360
2F5
102
}
102
{ACAD_REACTORS
330
29
102
}
330
29
100
AcDbVisualStyle
  2
GouraudWithEdges
 70
     3
177
     2
291
     1
 71
     2
176
     1
 72
     2
176
     1
 73
     1
176
     1
 90
        2
176
     1
 40
0.6
176
     1
 41
30.0
176
     1
 63
     7
421
 16777215
176
     1
 74
     1
176
     1
 91
        0
176
     1
 64
     7
176
     1
 65
   257
176
     1
 75
     1
176
     1
175
     1
176
     1
 42
1.0
176
     1
 92
        0
176
     1
 66
   257
176
     1
 43
1.0
176
     1
 76
     1
176
     1
 77
     6
176
     1
 78
     2
176
     1
 67
     7
176
     1
 79
     5
176
     1
170
     0
176
     1
171
     0
176
     1
290
     0
176
     1
 93
       13
176
     1
 44
0.0
176
     1
173
     0
176
     1
1001
ACAD
1000
AcDbSavedByObjectVersion
1070
     0
  0
VISUALSTYLE
  5
31
102
{ACAD_XDICTIONARY
360
2FD
102
}
102
{ACAD_REACTORS
330
29
102
}
330
29
100
AcDbVisualStyle
  2
Hidden
 70
     6
177
     2
291
     0
 71
     1
176
     1
 72
     2
176
     1
 73
     2
176
     1
 90
        0
176
     1
 40
0.6
176
     1
 41
30.0
176
     1
 63
     7
421
 16777215
176
     1
 74
     2
176
     1
 91
        2
176
     1
 64
     7
176
     1
 65
   257
176
     1
 75
     2
176
     1
175
     1
176
     1
 42
40.0
176
     1
 92
        0
176
     1
 66
   257
176
     1
 43
1.0
176
     1
 76
     1
176
     1
 77
     6
176
     1
 78
     2
176
     1
 67
     7
176
     1
 79
     3
176
     1
170
     0
176
     1
171
     0
176
     1
290
     0
176
     1
 93
        1
176
     1
 44
0.0
176
     1
173
     0
176
     1
1001
ACAD
1000
AcDbSavedByObjectVersion
1070
     0
  0
VISUALSTYLE
  5
3F
102
{ACAD_XDICTIONARY
360
319
102
}
102
{ACAD_REACTORS
330
29
102
}
330
29
100
AcDbVisualStyle
  2
JitterOff
 70
    20
177
     2
291
     1
 71
     2
176
     0
 72
     2
176
     0
 73
     0
176
     0
 90
        0
176
     0
 40
0.6
176
     0
 41
30.0
176
     0
 63
     7
421
 16777215
176
     0
 74
     1
176
     0
 91
        4
176
     0
 64
     7
176
     0
 65
   257
176
     0
 75
     1
176
     0
175
     1
176
     0
 42
1.0
176
     0
 92
       10
176
     2
 66
     7
176
     0
 43
1.0
176
     0
 76
     1
176
     0
 77
     6
176
     0
 78
     2
176
     0
 67
     7
176
     0
 79
     5
176
     0
170
     0
176
     0
171
     0
176
     0
290
     0
176
     0
 93
        1
176
     0
 44
0.0
176
     0
173
     0
176
     0
1001
ACAD
1000
AcDbSavedByObjectVersion
1070
     0
  0
VISUALSTYLE
  5
37
102
{ACAD_XDICTIONARY
360
309
102
}
102
{ACAD_REACTORS
330
29
102
}
330
29
100
AcDbVisualStyle
  2
Linepattern
 70
    14
177
     2
291
     1
 71
     2
176
     1
 72
     2
176
     1
 73
     0
176
     1
 90
        0
176
     1
 40
0.6
176
     1
 41
30.0
176
     1
 63
     7
421
 16777215
176
     1
 74
     1
176
     1
 91
        4
176
     1
 64
     7
176
     1
 65
   257
176
     1
 75
     7
176
     1
175
     7
176
     1
 42
1.0
176
     1
 92
        8
176
     1
 66
     7
176
     1
 43
1.0
176
     1
 76
     1
176
     1
 77
     6
176
     1
 78
     2
176
     1
 67
     7
176
     1
 79
     5
176
     1
170
     0
176
     1
171
     0
176
     1
290
     0
176
     1
 93
        1
176
     1
 44
0.0
176
     1
173
     0
176
     1
1001
ACAD
1000
AcDbSavedByObjectVersion
1070
     0
  0
VISUALSTYLE
  5
40
102
{ACAD_XDICTIONARY
360
31B
102
}
102
{ACAD_REACTORS
330
29
102
}
330
29
100
AcDbVisualStyle
  2
OverhangOff
 70
    21
177
     2
291
     1
 71
     2
176
     0
 72
     2
176
     0
 73
     0
176
     0
 90
        0
176
     0
 40
0.6
176
     0
 41
30.0
176
     0
 63
     7
421
 16777215
176
     0
 74
     1
176
     0
 91
        4
176
     0
 64
     7
176
     0
 65
   257
176
     0
 75
     1
176
     0
175
     1
176
     0
 42
1.0
176
     0
 92
        9
176
     2
 66
     7
176
     0
 43
1.0
176
     0
 76
     1
176
     0
 77
     6
176
     0
 78
     2
176
     0
 67
     7
176
     0
 79
     5
176
     0
170
     0
176
     0
171
     0
176
     0
290
     0
176
     0
 93
        1
176
     0
 44
0.0
176
     0
173
     0
176
     0
1001
ACAD
1000
AcDbSavedByObjectVersion
1070
     0
  0
VISUALSTYLE
  5
33
102
{ACAD_XDICTIONARY
360
301
102
}
102
{ACAD_REACTORS
330
29
102
}
330
29
100
AcDbVisualStyle
  2
Realistic
 70
     8
177
     2
291
     0
 71
     2
176
     1
 72
     3
176
     1
 73
     0
176
     1
 90
        2
176
     1
 40
0.6
176
     1
 41
30.0
176
     1
 63
     7
421
 16777215
176
     1
 74
     0
176
     1
 91
        0
176
     1
 64
     7
176
     1
 65
   257
176
     1
 75
     1
176
     1
175
     1
176
     1
 42
1.0
176
     1
 92
        8
176
     1
 66
   257
176
     1
 43
1.0
176
     1
 76
     1
176
     1
 77
     6
176
     1
 78
     2
176
     1
 67
     7
176
     1
 79
     3
176
     1
170
     0
176
     1
171
     0
176
     1
290
     0
176
     1
 93
       13
176
     1
 44
0.0
176
     1
173
     0
176
     1
1001
ACAD
1000
AcDbSavedByObjectVersion
1070
     0
  0
VISUALSTYLE
  5
3E
102
{ACAD_XDICTIONARY
360
317
102
}
102
{ACAD_REACTORS
330
29
102
}
330
29
100
AcDbVisualStyle
  2
Shaded
 70
    27
177
     2
291
     0
 71
     2
176
     1
 72
     2
176
     1
 73
     1
176
     1
 90
        2
176
     1
 40
0.6
176
     1
 41
30.0
176
     1
 63
     7
421
 16777215
176
     1
 74
     0
176
     1
 91
        4
176
     1
 64
     7
176
     1
 65
   257
176
     1
 75
     1
176
     1
175
     1
176
     1
 42
1.0
176
     1
 92
        8
176
     1
 66
   257
176
     1
 43
1.0
176
     1
 76
     1
176
     1
 77
     6
176
     1
 78
     2
176
     1
 67
     8
425
  7895160
176
     1
 79
     3
176
     1
170
     0
176
     1
171
     0
176
     1
290
     0
176
     1
 93
        5
176
     1
 44
0.0
176
     1
173
     0
176
     1
1001
ACAD
1000
AcDbSavedByObjectVersion
1070
     0
  0
VISUALSTYLE
  5
3D
102
{ACAD_XDICTIONARY
360
315
102
}
102
{ACAD_REACTORS
330
29
102
}
330
29
100
AcDbVisualStyle
  2
Shaded with edges
 70
    26
177
     2
291
     0
 71
     2
176
     1
 72
     2
176
     1
 73
     1
176
     1
 90
        2
176
     1
 40
0.6
176
     1
 41
30.0
176
     1
 63
     7
421
 16777215
176
     1
 74
     1
176
     1
 91
       10
176
     1
 64
     7
176
     1
 65
   257
176
     1
 75
     2
176
     1
175
     1
176
     1
 42
1.0
176
     1
 92
        8
176
     1
 66
   257
176
     1
 43
1.0
176
     1
 76
     1
176
     1
 77
     6
176
     1
 78
     2
176
     1
 67
     7
176
     1
 79
     3
176
     1
170
     0
176
     1
171
     0
176
     1
290
     0
176
     1
 93
        5
176
     1
 44
0.0
176
     1
173
     0
176
     1
1001
ACAD
1000
AcDbSavedByObjectVersion
1070
     0
  0
VISUALSTYLE
  5
3A
102
{ACAD_XDICTIONARY
360
30F
102
}
102
{ACAD_REACTORS
330
29
102
}
330
29
100
AcDbVisualStyle
  2
Shades of Gray
 70
    23
177
     2
291
     0
 71
     2
176
     1
 72
     2
176
     1
 73
     3
176
     1
 90
        0
176
     1
 40
0.6
176
     1
 41
30.0
176
     1
 63
     7
421
 16777215
176
     1
 74
     2
176
     1
 91
        2
176
     1
 64
     7
176
     1
 65
     7
176
     1
 75
     1
176
     1
175
     1
176
     1
 42
40.0
176
     1
 92
        8
176
     1
 66
     7
176
     1
 43
1.0
176
     1
 76
     1
176
     1
 77
     6
176
     1
 78
     2
176
     1
 67
     7
176
     1
 79
     3
176
     1
170
     0
176
     1
171
     0
176
     1
290
     0
176
     1
 93
        1
176
     1
 44
0.0
176
     1
173
     0
176
     1
1001
ACAD
1000
AcDbSavedByObjectVersion
1070
     0
  0
VISUALSTYLE
  5
3B
102
{ACAD_XDICTIONARY
360
311
102
}
102
{ACAD_REACTORS
330
29
102
}
330
29
100
AcDbVisualStyle
  2
Sketchy
 70
    24
177
     2
291
     0
 71
     1
176
     1
 72
     2
176
     1
 73
     2
176
     1
 90
        0
176
     1
 40
0.6
176
     1
 41
30.0
176
     1
 63
     7
421
 16777215
176
     1
 74
     2
176
     1
 91
        2
176
     1
 64
     7
176
     1
 65
     7
176
     1
 75
     1
176
     1
175
     1
176
     1
 42
40.0
176
     1
 92
       11
176
     1
 66
     7
176
     1
 43
1.0
176
     1
 76
     1
176
     1
 77
     6
176
     1
 78
     2
176
     1
 67
     7
176
     1
 79
     6
176
     1
170
     0
176
     1
171
     0
176
     1
290
     0
176
     1
 93
        1
176
     1
 44
0.0
176
     1
173
     0
176
     1
1001
ACAD
1000
AcDbSavedByObjectVersion
1070
     0
  0
VISUALSTYLE
  5
36
102
{ACAD_XDICTIONARY
360
307
102
}
102
{ACAD_REACTORS
330
29
102
}
330
29
100
AcDbVisualStyle
  2
Thicken
 70
    13
177
     2
291
     1
 71
     2
176
     1
 72
     2
176
     1
 73
     0
176
     1
 90
        0
176
     1
 40
0.6
176
     1
 41
30.0
176
     1
 63
     7
421
 16777215
176
     1
 74
     1
176
     1
 91
        4
176
     1
 64
     7
176
     1
 65
   257
176
     1
 75
     1
176
     1
175
     1
176
     1
 42
1.0
176
     1
 92
       12
176
     1
 66
     7
176
     1
 43
1.0
176
     1
 76
     1
176
     1
 77
     6
176
     1
 78
     2
176
     1
 67
     7
176
     1
 79
     5
176
     1
170
     0
176
     1
171
     0
176
     1
290
     0
176
     1
 93
        1
176
     1
 44
0.0
176
     1
173
     0
176
     1
1001
ACAD
1000
AcDbSavedByObjectVersion
1070
     0
  0
VISUALSTYLE
  5
30
102
{ACAD_XDICTIONARY
360
2FB
102
}
102
{ACAD_REACTORS
330
29
102
}
330
29
100
AcDbVisualStyle
  2
Wireframe
 70
     5
177
     2
291
     0
 71
     0
176
     1
 72
     2
176
     1
 73
     0
176
     1
 90
        0
176
     1
 40
0.6
176
     1
 41
30.0
176
     1
 63
     7
421
 16777215
176
     1
 74
     1
176
     1
 91
        4
176
     1
 64
     7
176
     1
 65
   257
176
     1
 75
     1
176
     1
175
     1
176
     1
 42
1.0
176
     1
 92
        0
176
     1
 66
   257
176
     1
 43
1.0
176
     1
 76
     1
176
     1
 77
     6
176
     1
 78
     2
176
     1
 67
     7
176
     1
 79
     3
176
     1
170
     0
176
     1
171
     0
176
     1
290
     0
176
     1
 93
        1
176
     1
 44
0.0
176
     1
173
     0
176
     1
1001
ACAD
1000
AcDbSavedByObjectVersion
1070
     0
  0
VISUALSTYLE
  5
3C
102
{ACAD_XDICTIONARY
360
313
102
}
102
{ACAD_REACTORS
330
29
102
}
330
29
100
AcDbVisualStyle
  2
X-Ray
 70
    25
177
     2
291
     0
 71
     2
176
     1
 72
     2
176
     1
 73
     1
176
     1
 90
        1
176
     1
 40
0.5
176
     1
 41
30.0
176
     1
 63
     7
421
 16777215
176
     1
 74
     1
176
     1
 91
        0
176
     1
 64
     7
176
     1
 65
   257
176
     1
 75
     1
176
     1
175
     1
176
     1
 42
1.0
176
     1
 92
        8
176
     1
 66
     7
176
     1
 43
1.0
176
     1
 76
     1
176
     1
 77
     6
176
     1
 78
     2
176
     1
 67
     7
176
     1
 79
     3
176
     1
170
     0
176
     1
171
     0
176
     1
290
     0
176
     1
 93
       13
176
     1
 44
0.0
176
     1
173
     0
176
     1
1001
ACAD
1000
AcDbSavedByObjectVersion
1070
     0
  0
DICTIONARYVAR
  5
CF
102
{ACAD_REACTORS
330
CA
102
}
330
CA
100
DictionaryVariables
280
     0
  1
1:1
  0
DICTIONARYVAR
  5
CC
102
{ACAD_REACTORS
330
CA
102
}
330
CA
100
DictionaryVariables
280
     0
  1
STANDARD
  0
DICTIONARYVAR
  5
CB
102
{ACAD_REACTORS
330
CA
102
}
330
CA
100
DictionaryVariables
280
     0
  1
STANDARD
  0
DICTIONARYVAR
  5
CD
102
{ACAD_REACTORS
330
CA
102
}
330
CA
100
DictionaryVariables
280
     0
  1
Imperial24
  0
DICTIONARYVAR
  5
CE
102
{ACAD_REACTORS
330
CA
102
}
330
CA
100
DictionaryVariables
280
     0
  1
Imperial24
  0
XRECORD
  5
C2
102
{ACAD_REACTORS
330
C0
102
}
330
C0
100
AcDbXrecord
280
     1
  1
BUILDING_ID
  1
Bathtub-American_Standard-Estate-2692
  1
FLOOR_ID
  1
35
  0
XRECORD
  5
C1
102
{ACAD_REACTORS
330
C0
102
}
330
C0
100
AcDbXrecord
280
     1
  1
-2001160
  1
Plumbing Fixtures
  0
DICTIONARY
  5
C7
330
6B
100
AcDbDictionary
280
     1
281
     1
  3
ACAD_XREC_ROUNDTRIP
360
322
  0
DICTIONARY
  5
1A
330
19
100
AcDbDictionary
280
     1
281
     1
  3
BUMPTILE
360
1C
  3
DIFFUSETILE
360
1B
  3
OPACITYTILE
360
1F
  3
REFLECTIONTILE
360
1E
  3
REFRACTIONTILE
360
20
  3
SPECULARTILE
360
1D
  0
DICTIONARY
  5
12
330
11
100
AcDbDictionary
280
     1
281
     1
  3
BUMPTILE
360
14
  3
DIFFUSETILE
360
13
  3
OPACITYTILE
360
17
  3
REFLECTIONTILE
360
16
  3
REFRACTIONTILE
360
18
  3
SPECULARTILE
360
15
  0
DICTIONARY
  5
22
330
21
100
AcDbDictionary
280
     1
281
     1
  3
BUMPTILE
360
24
  3
DIFFUSETILE
360
23
  3
OPACITYTILE
360
27
  3
REFLECTIONTILE
360
26
  3
REFRACTIONTILE
360
28
  3
SPECULARTILE
360
25
  0
DICTIONARY
  5
31F
330
67
100
AcDbDictionary
280
     1
281
     1
  3
ACAD_XREC_ROUNDTRIP
360
320
  0
DICTIONARY
  5
C5
330
69
100
AcDbDictionary
280
     1
281
     1
  3
ACAD_XREC_ROUNDTRIP
360
321
  0
DICTIONARY
  5
2EC
330
65
100
AcDbDictionary
280
     1
281
     1
  3
ACAD_ROUNDTRIP_2008_TABLESTYLE_CELLSTYLEMAP
360
2ED
  0
DICTIONARY
  5
2F9
330
2F
100
AcDbDictionary
280
     1
281
     1
  3
ACAD_XREC_ROUNDTRIP
360
2FA
  0
DICTIONARY
  5
2F7
330
2E
100
AcDbDictionary
280
     1
281
     1
  3
ACAD_XREC_ROUNDTRIP
360
2F8
  0
DICTIONARY
  5
305
330
35
100
AcDbDictionary
280
     1
281
     1
  3
ACAD_XREC_ROUNDTRIP
360
306
  0
DICTIONARY
  5
30D
330
39
100
AcDbDictionary
280
     1
281
     1
  3
ACAD_XREC_ROUNDTRIP
360
30E
  0
DICTIONARY
  5
2FF
330
32
100
AcDbDictionary
280
     1
281
     1
  3
ACAD_XREC_ROUNDTRIP
360
300
  0
DICTIONARY
  5
303
330
34
100
AcDbDictionary
280
     1
281
     1
  3
ACAD_XREC_ROUNDTRIP
360
304
  0
DICTIONARY
  5
31D
330
41
100
AcDbDictionary
280
     1
281
     1
  3
ACAD_XREC_ROUNDTRIP
360
31E
  0
DICTIONARY
  5
30B
330
38
100
AcDbDictionary
280
     1
281
     1
  3
ACAD_XREC_ROUNDTRIP
360
30C
  0
DICTIONARY
  5
2EF
330
2A
100
AcDbDictionary
280
     1
281
     1
  3
ACAD_XREC_ROUNDTRIP
360
2F0
  0
DICTIONARY
  5
2F1
330
2B
100
AcDbDictionary
280
     1
281
     1
  3
ACAD_XREC_ROUNDTRIP
360
2F2
  0
DICTIONARY
  5
2F3
330
2C
100
AcDbDictionary
280
     1
281
     1
  3
ACAD_XREC_ROUNDTRIP
360
2F4
  0
DICTIONARY
  5
2F5
330
2D
100
AcDbDictionary
280
     1
281
     1
  3
ACAD_XREC_ROUNDTRIP
360
2F6
  0
DICTIONARY
  5
2FD
330
31
100
AcDbDictionary
280
     1
281
     1
  3
ACAD_XREC_ROUNDTRIP
360
2FE
  0
DICTIONARY
  5
319
330
3F
100
AcDbDictionary
280
     1
281
     1
  3
ACAD_XREC_ROUNDTRIP
360
31A
  0
DICTIONARY
  5
309
330
37
100
AcDbDictionary
280
     1
281
     1
  3
ACAD_XREC_ROUNDTRIP
360
30A
  0
DICTIONARY
  5
31B
330
40
100
AcDbDictionary
280
     1
281
     1
  3
ACAD_XREC_ROUNDTRIP
360
31C
  0
DICTIONARY
  5
301
330
33
100
AcDbDictionary
280
     1
281
     1
  3
ACAD_XREC_ROUNDTRIP
360
302
  0
DICTIONARY
  5
317
330
3E
100
AcDbDictionary
280
     1
281
     1
  3
ACAD_XREC_ROUNDTRIP
360
318
  0
DICTIONARY
  5
315
330
3D
100
AcDbDictionary
280
     1
281
     1
  3
ACAD_XREC_ROUNDTRIP
360
316
  0
DICTIONARY
  5
30F
330
3A
100
AcDbDictionary
280
     1
281
     1
  3
ACAD_XREC_ROUNDTRIP
360
310
  0
DICTIONARY
  5
311
330
3B
100
AcDbDictionary
280
     1
281
     1
  3
ACAD_XREC_ROUNDTRIP
360
312
  0
DICTIONARY
  5
307
330
36
100
AcDbDictionary
280
     1
281
     1
  3
ACAD_XREC_ROUNDTRIP
360
308
  0
DICTIONARY
  5
2FB
330
30
100
AcDbDictionary
280
     1
281
     1
  3
ACAD_XREC_ROUNDTRIP
360
2FC
  0
DICTIONARY
  5
313
330
3C
100
AcDbDictionary
280
     1
281
     1
  3
ACAD_XREC_ROUNDTRIP
360
314
  0
XRECORD
  5
322
102
{ACAD_REACTORS
330
C7
102
}
330
C7
100
AcDbXrecord
280
     1
102
DISPLAYNAME
  1
Imperial24
102
FLAGS
 90
        0
  0
XRECORD
  5
1C
102
{ACAD_REACTORS
330
1A
102
}
330
1A
100
AcDbXrecord
280
     1
270
     1
271
     1
  0
XRECORD
  5
1B
102
{ACAD_REACTORS
330
1A
102
}
330
1A
100
AcDbXrecord
280
     1
270
     1
271
     1
  0
XRECORD
  5
1F
102
{ACAD_REACTORS
330
1A
102
}
330
1A
100
AcDbXrecord
280
     1
270
     1
271
     1
  0
XRECORD
  5
1E
102
{ACAD_REACTORS
330
1A
102
}
330
1A
100
AcDbXrecord
280
     1
270
     1
271
     1
  0
XRECORD
  5
20
102
{ACAD_REACTORS
330
1A
102
}
330
1A
100
AcDbXrecord
280
     1
270
     1
271
     1
  0
XRECORD
  5
1D
102
{ACAD_REACTORS
330
1A
102
}
330
1A
100
AcDbXrecord
280
     1
270
     1
271
     1
  0
XRECORD
  5
14
102
{ACAD_REACTORS
330
12
102
}
330
12
100
AcDbXrecord
280
     1
270
     1
271
     1
  0
XRECORD
  5
13
102
{ACAD_REACTORS
330
12
102
}
330
12
100
AcDbXrecord
280
     1
270
     1
271
     1
  0
XRECORD
  5
17
102
{ACAD_REACTORS
330
12
102
}
330
12
100
AcDbXrecord
280
     1
270
     1
271
     1
  0
XRECORD
  5
16
102
{ACAD_REACTORS
330
12
102
}
330
12
100
AcDbXrecord
280
     1
270
     1
271
     1
  0
XRECORD
  5
18
102
{ACAD_REACTORS
330
12
102
}
330
12
100
AcDbXrecord
280
     1
270
     1
271
     1
  0
XRECORD
  5
15
102
{ACAD_REACTORS
330
12
102
}
330
12
100
AcDbXrecord
280
     1
270
     1
271
     1
  0
XRECORD
  5
24
102
{ACAD_REACTORS
330
22
102
}
330
22
100
AcDbXrecord
280
     1
270
     1
271
     1
  0
XRECORD
  5
23
102
{ACAD_REACTORS
330
22
102
}
330
22
100
AcDbXrecord
280
     1
270
     1
271
     1
  0
XRECORD
  5
27
102
{ACAD_REACTORS
330
22
102
}
330
22
100
AcDbXrecord
280
     1
270
     1
271
     1
  0
XRECORD
  5
26
102
{ACAD_REACTORS
330
22
102
}
330
22
100
AcDbXrecord
280
     1
270
     1
271
     1
  0
XRECORD
  5
28
102
{ACAD_REACTORS
330
22
102
}
330
22
100
AcDbXrecord
280
     1
270
     1
271
     1
  0
XRECORD
  5
25
102
{ACAD_REACTORS
330
22
102
}
330
22
100
AcDbXrecord
280
     1
270
     1
271
     1
  0
XRECORD
  5
320
102
{ACAD_REACTORS
330
31F
102
}
330
31F
100
AcDbXrecord
280
     1
102
ACAD_ROUNDTRIP_2012_MLEADER_STYLE
298
     1
  0
XRECORD
  5
321
102
{ACAD_REACTORS
330
C5
102
}
330
C5
100
AcDbXrecord
280
     1
102
DISPLAYNAME
  1
Imperial24
102
FLAGS
 90
        0
  0
CELLSTYLEMAP
  5
2ED
102
{ACAD_REACTORS
330
2EC
102
}
330
2EC
100
AcDbCellStyleMap
 90
        3
300
CELLSTYLE
  1
TABLEFORMAT_BEGIN
 90
        5
170
     1
 91
        0
 92
    32768
 62
   257
 93
        1
300
CONTENTFORMAT
  1
CONTENTFORMAT_BEGIN
 90
        0
 91
        0
 92
      512
 93
        0
300

 40
0.0
140
1.0
 94
        5
 62
     0
340
55
144
0.25
309
CONTENTFORMAT_END
171
     0
 94
        0
309
TABLEFORMAT_END
  1
CELLSTYLE_BEGIN
 90
        1
 91
        1
300
_TITLE
309
CELLSTYLE_END
300
CELLSTYLE
  1
TABLEFORMAT_BEGIN
 90
        5
170
     1
 91
        0
 92
        0
 62
   257
 93
        1
300
CONTENTFORMAT
  1
CONTENTFORMAT_BEGIN
 90
        0
 91
        0
 92
      512
 93
        0
300

 40
0.0
140
1.0
 94
        5
 62
     0
340
55
144
0.18
309
CONTENTFORMAT_END
171
     0
 94
        0
309
TABLEFORMAT_END
  1
CELLSTYLE_BEGIN
 90
        2
 91
        1
300
_HEADER
309
CELLSTYLE_END
300
CELLSTYLE
  1
TABLEFORMAT_BEGIN
 90
        5
170
     1
 91
        0
 92
        0
 62
   257
 93
        1
300
CONTENTFORMAT
  1
CONTENTFORMAT_BEGIN
 90
        0
 91
        0
 92
      512
 93
        0
300

 40
0.0
140
1.0
 94
        2
 62
     0
340
55
144
0.18
309
CONTENTFORMAT_END
171
     0
 94
        0
309
TABLEFORMAT_END
  1
CELLSTYLE_BEGIN
 90
        3
 91
        2
300
_DATA
309
CELLSTYLE_END
  0
XRECORD
  5
2FA
102
{ACAD_REACTORS
330
2F9
102
}
330
2F9
100
AcDbXrecord
280
     1
102
RTVSPost2010Prop28
280
     1
102
RTVSPost2010PropOp28
 70
     1
102
RTVSPost2010Prop29
280
     1
102
RTVSPost2010PropOp29
 70
     1
102
RTVSPost2010Prop30
280
     0
102
RTVSPost2010PropOp30
 70
     1
102
RTVSPost2010Prop31
280
     0
102
RTVSPost2010PropOp31
 70
     1
102
RTVSPost2010Prop32
280
     0
102
RTVSPost2010PropOp32
 70
     1
102
RTVSPost2010Prop33
280
     0
102
RTVSPost2010PropOp33
 70
     1
102
RTVSPost2010Prop34
280
     0
102
RTVSPost2010PropOp34
 70
     1
102
RTVSPost2010Prop35
280
     0
102
RTVSPost2010PropOp35
 70
     1
102
RTVSPost2010Prop36
280
     0
102
RTVSPost2010PropOp36
 70
     1
102
RTVSPost2010Prop37
 90
       50
102
RTVSPost2010PropOp37
 70
     1
102
RTVSPost2010Prop38
140
0.0
102
RTVSPost2010PropOp38
 70
     1
102
RTVSPost2010Prop39
140
1.0
102
RTVSPost2010PropOp39
 70
     1
102
RTVSPost2010Prop40
 90
        0
102
RTVSPost2010PropOp40
 70
     1
102
RTVSPost2010Prop41ColorIndex
 90
       18
102
RTVSPost2010Prop41ColorRGB
 90
        0
102
RTVSPost2010PropOp41
 70
     1
102
RTVSPost2010Prop42
 90
       50
102
RTVSPost2010PropOp42
 70
     1
102
RTVSPost2010Prop43
 90
        3
102
RTVSPost2010PropOp43
 70
     1
102
RTVSPost2010Prop44ColorIndex
 90
        5
102
RTVSPost2010Prop44ColorRGB
 90
      255
102
RTVSPost2010PropOp44
 70
     1
102
RTVSPost2010Prop45
280
     0
102
RTVSPost2010PropOp45
 70
     1
102
RTVSPost2010Prop46
 90
       50
102
RTVSPost2010PropOp46
 70
     1
102
RTVSPost2010Prop47
 90
       50
102
RTVSPost2010PropOp47
 70
     1
102
RTVSPost2010Prop48
 90
       50
102
RTVSPost2010PropOp48
 70
     1
102
RTVSPost2010Prop49
280
     0
102
RTVSPost2010PropOp49
 70
     1
102
RTVSPost2010Prop50
 90
       50
102
RTVSPost2010PropOp50
 70
     1
102
RTVSPost2010Prop51ColorIndex
 90
      256
102
RTVSPost2010Prop51ColorRGB
 90
-16777216
102
RTVSPost2010PropOp51
 70
     0
102
RTVSPost2010Prop52
140
1.0
102
RTVSPost2010PropOp52
 70
     0
102
RTVSPost2010Prop53
 90
        2
102
RTVSPost2010PropOp53
 70
     1
102
RTVSPost2010Prop54
  1
strokes_ogs.tif
102
RTVSPost2010PropOp54
 70
     1
102
RTVSPost2010Prop55
280
     0
102
RTVSPost2010PropOp55
 70
     1
102
RTVSPost2010Prop56
140
1.0
102
RTVSPost2010PropOp56
 70
     1
102
RTVSPost2010Prop57
140
1.0
102
RTVSPost2010PropOp57
 70
     1
  0
XRECORD
  5
2F8
102
{ACAD_REACTORS
330
2F7
102
}
330
2F7
100
AcDbXrecord
280
     1
102
RTVSPost2010Prop28
280
     0
102
RTVSPost2010PropOp28
 70
     1
102
RTVSPost2010Prop29
280
     1
102
RTVSPost2010PropOp29
 70
     1
102
RTVSPost2010Prop30
280
     1
102
RTVSPost2010PropOp30
 70
     1
102
RTVSPost2010Prop31
280
     0
102
RTVSPost2010PropOp31
 70
     1
102
RTVSPost2010Prop32
280
     0
102
RTVSPost2010PropOp32
 70
     1
102
RTVSPost2010Prop33
280
     0
102
RTVSPost2010PropOp33
 70
     1
102
RTVSPost2010Prop34
280
     0
102
RTVSPost2010PropOp34
 70
     1
102
RTVSPost2010Prop35
280
     0
102
RTVSPost2010PropOp35
 70
     1
102
RTVSPost2010Prop36
280
     0
102
RTVSPost2010PropOp36
 70
     1
102
RTVSPost2010Prop37
 90
       50
102
RTVSPost2010PropOp37
 70
     1
102
RTVSPost2010Prop38
140
0.0
102
RTVSPost2010PropOp38
 70
     1
102
RTVSPost2010Prop39
140
1.0
102
RTVSPost2010PropOp39
 70
     1
102
RTVSPost2010Prop40
 90
        0
102
RTVSPost2010PropOp40
 70
     1
102
RTVSPost2010Prop41ColorIndex
 90
       18
102
RTVSPost2010Prop41ColorRGB
 90
        0
102
RTVSPost2010PropOp41
 70
     1
102
RTVSPost2010Prop42
 90
       50
102
RTVSPost2010PropOp42
 70
     1
102
RTVSPost2010Prop43
 90
        3
102
RTVSPost2010PropOp43
 70
     1
102
RTVSPost2010Prop44ColorIndex
 90
        5
102
RTVSPost2010Prop44ColorRGB
 90
      255
102
RTVSPost2010PropOp44
 70
     1
102
RTVSPost2010Prop45
280
     0
102
RTVSPost2010PropOp45
 70
     1
102
RTVSPost2010Prop46
 90
       50
102
RTVSPost2010PropOp46
 70
     1
102
RTVSPost2010Prop47
 90
       50
102
RTVSPost2010PropOp47
 70
     1
102
RTVSPost2010Prop48
 90
       50
102
RTVSPost2010PropOp48
 70
     1
102
RTVSPost2010Prop49
280
     0
102
RTVSPost2010PropOp49
 70
     1
102
RTVSPost2010Prop50
 90
       50
102
RTVSPost2010PropOp50
 70
     1
102
RTVSPost2010Prop51ColorIndex
 90
      256
102
RTVSPost2010Prop51ColorRGB
 90
-16777216
102
RTVSPost2010PropOp51
 70
     0
102
RTVSPost2010Prop52
140
1.0
102
RTVSPost2010PropOp52
 70
     0
102
RTVSPost2010Prop53
 90
        2
102
RTVSPost2010PropOp53
 70
     1
102
RTVSPost2010Prop54
  1
strokes_ogs.tif
102
RTVSPost2010PropOp54
 70
     1
102
RTVSPost2010Prop55
280
     0
102
RTVSPost2010PropOp55
 70
     1
102
RTVSPost2010Prop56
140
1.0
102
RTVSPost2010PropOp56
 70
     1
102
RTVSPost2010Prop57
140
1.0
102
RTVSPost2010PropOp57
 70
     1
  0
XRECORD
  5
306
102
{ACAD_REACTORS
330
305
102
}
330
305
100
AcDbXrecord
280
     1
102
RTVSPost2010Prop28
280
     0
102
RTVSPost2010PropOp28
 70
     1
102
RTVSPost2010Prop29
280
     1
102
RTVSPost2010PropOp29
 70
     1
102
RTVSPost2010Prop30
280
     1
102
RTVSPost2010PropOp30
 70
     1
102
RTVSPost2010Prop31
280
     0
102
RTVSPost2010PropOp31
 70
     1
102
RTVSPost2010Prop32
280
     0
102
RTVSPost2010PropOp32
 70
     1
102
RTVSPost2010Prop33
280
     0
102
RTVSPost2010PropOp33
 70
     1
102
RTVSPost2010Prop34
280
     0
102
RTVSPost2010PropOp34
 70
     1
102
RTVSPost2010Prop35
280
     0
102
RTVSPost2010PropOp35
 70
     1
102
RTVSPost2010Prop36
280
     0
102
RTVSPost2010PropOp36
 70
     1
102
RTVSPost2010Prop37
 90
       50
102
RTVSPost2010PropOp37
 70
     1
102
RTVSPost2010Prop38
140
0.0
102
RTVSPost2010PropOp38
 70
     1
102
RTVSPost2010Prop39
140
1.0
102
RTVSPost2010PropOp39
 70
     1
102
RTVSPost2010Prop40
 90
        0
102
RTVSPost2010PropOp40
 70
     1
102
RTVSPost2010Prop41ColorIndex
 90
       18
102
RTVSPost2010Prop41ColorRGB
 90
        0
102
RTVSPost2010PropOp41
 70
     1
102
RTVSPost2010Prop42
 90
       50
102
RTVSPost2010PropOp42
 70
     1
102
RTVSPost2010Prop43
 90
        3
102
RTVSPost2010PropOp43
 70
     1
102
RTVSPost2010Prop44ColorIndex
 90
        5
102
RTVSPost2010Prop44ColorRGB
 90
      255
102
RTVSPost2010PropOp44
 70
     1
102
RTVSPost2010Prop45
280
     0
102
RTVSPost2010PropOp45
 70
     1
102
RTVSPost2010Prop46
 90
       50
102
RTVSPost2010PropOp46
 70
     1
102
RTVSPost2010Prop47
 90
       50
102
RTVSPost2010PropOp47
 70
     1
102
RTVSPost2010Prop48
 90
       50
102
RTVSPost2010PropOp48
 70
     1
102
RTVSPost2010Prop49
280
     0
102
RTVSPost2010PropOp49
 70
     1
102
RTVSPost2010Prop50
 90
       50
102
RTVSPost2010PropOp50
 70
     1
102
RTVSPost2010Prop51ColorIndex
 90
      256
102
RTVSPost2010Prop51ColorRGB
 90
-16777216
102
RTVSPost2010PropOp51
 70
     0
102
RTVSPost2010Prop52
140
1.0
102
RTVSPost2010PropOp52
 70
     0
102
RTVSPost2010Prop53
 90
        2
102
RTVSPost2010PropOp53
 70
     1
102
RTVSPost2010Prop54
  1
strokes_ogs.tif
102
RTVSPost2010PropOp54
 70
     1
102
RTVSPost2010Prop55
280
     0
102
RTVSPost2010PropOp55
 70
     1
102
RTVSPost2010Prop56
140
1.0
102
RTVSPost2010PropOp56
 70
     1
102
RTVSPost2010Prop57
140
1.0
102
RTVSPost2010PropOp57
 70
     1
  0
XRECORD
  5
30E
102
{ACAD_REACTORS
330
30D
102
}
330
30D
100
AcDbXrecord
280
     1
102
RTVSPost2010Prop28
280
     0
102
RTVSPost2010PropOp28
 70
     1
102
RTVSPost2010Prop29
280
     1
102
RTVSPost2010PropOp29
 70
     1
102
RTVSPost2010Prop30
280
     1
102
RTVSPost2010PropOp30
 70
     1
102
RTVSPost2010Prop31
280
     0
102
RTVSPost2010PropOp31
 70
     1
102
RTVSPost2010Prop32
280
     0
102
RTVSPost2010PropOp32
 70
     1
102
RTVSPost2010Prop33
280
     0
102
RTVSPost2010PropOp33
 70
     1
102
RTVSPost2010Prop34
280
     0
102
RTVSPost2010PropOp34
 70
     1
102
RTVSPost2010Prop35
280
     0
102
RTVSPost2010PropOp35
 70
     1
102
RTVSPost2010Prop36
280
     0
102
RTVSPost2010PropOp36
 70
     1
102
RTVSPost2010Prop37
 90
       50
102
RTVSPost2010PropOp37
 70
     1
102
RTVSPost2010Prop38
140
0.0
102
RTVSPost2010PropOp38
 70
     1
102
RTVSPost2010Prop39
140
1.0
102
RTVSPost2010PropOp39
 70
     1
102
RTVSPost2010Prop40
 90
        0
102
RTVSPost2010PropOp40
 70
     1
102
RTVSPost2010Prop41ColorIndex
 90
       18
102
RTVSPost2010Prop41ColorRGB
 90
        0
102
RTVSPost2010PropOp41
 70
     1
102
RTVSPost2010Prop42
 90
       50
102
RTVSPost2010PropOp42
 70
     1
102
RTVSPost2010Prop43
 90
        3
102
RTVSPost2010PropOp43
 70
     1
102
RTVSPost2010Prop44ColorIndex
 90
        5
102
RTVSPost2010Prop44ColorRGB
 90
      255
102
RTVSPost2010PropOp44
 70
     1
102
RTVSPost2010Prop45
280
     0
102
RTVSPost2010PropOp45
 70
     1
102
RTVSPost2010Prop46
 90
       50
102
RTVSPost2010PropOp46
 70
     1
102
RTVSPost2010Prop47
 90
       50
102
RTVSPost2010PropOp47
 70
     1
102
RTVSPost2010Prop48
 90
       50
102
RTVSPost2010PropOp48
 70
     1
102
RTVSPost2010Prop49
280
     0
102
RTVSPost2010PropOp49
 70
     1
102
RTVSPost2010Prop50
 90
       50
102
RTVSPost2010PropOp50
 70
     1
102
RTVSPost2010Prop51ColorIndex
 90
      256
102
RTVSPost2010Prop51ColorRGB
 90
-16777216
102
RTVSPost2010PropOp51
 70
     0
102
RTVSPost2010Prop52
140
1.0
102
RTVSPost2010PropOp52
 70
     0
102
RTVSPost2010Prop53
 90
        2
102
RTVSPost2010PropOp53
 70
     1
102
RTVSPost2010Prop54
  1
strokes_ogs.tif
102
RTVSPost2010PropOp54
 70
     1
102
RTVSPost2010Prop55
280
     0
102
RTVSPost2010PropOp55
 70
     1
102
RTVSPost2010Prop56
140
1.0
102
RTVSPost2010PropOp56
 70
     1
102
RTVSPost2010Prop57
140
1.0
102
RTVSPost2010PropOp57
 70
     1
  0
XRECORD
  5
300
102
{ACAD_REACTORS
330
2FF
102
}
330
2FF
100
AcDbXrecord
280
     1
102
RTVSPost2010Prop28
280
     0
102
RTVSPost2010PropOp28
 70
     1
102
RTVSPost2010Prop29
280
     1
102
RTVSPost2010PropOp29
 70
     1
102
RTVSPost2010Prop30
280
     1
102
RTVSPost2010PropOp30
 70
     1
102
RTVSPost2010Prop31
280
     0
102
RTVSPost2010PropOp31
 70
     1
102
RTVSPost2010Prop32
280
     0
102
RTVSPost2010PropOp32
 70
     1
102
RTVSPost2010Prop33
280
     0
102
RTVSPost2010PropOp33
 70
     1
102
RTVSPost2010Prop34
280
     0
102
RTVSPost2010PropOp34
 70
     1
102
RTVSPost2010Prop35
280
     0
102
RTVSPost2010PropOp35
 70
     1
102
RTVSPost2010Prop36
280
     0
102
RTVSPost2010PropOp36
 70
     1
102
RTVSPost2010Prop37
 90
       50
102
RTVSPost2010PropOp37
 70
     1
102
RTVSPost2010Prop38
140
0.0
102
RTVSPost2010PropOp38
 70
     1
102
RTVSPost2010Prop39
140
1.0
102
RTVSPost2010PropOp39
 70
     1
102
RTVSPost2010Prop40
 90
        0
102
RTVSPost2010PropOp40
 70
     1
102
RTVSPost2010Prop41ColorIndex
 90
       18
102
RTVSPost2010Prop41ColorRGB
 90
        0
102
RTVSPost2010PropOp41
 70
     1
102
RTVSPost2010Prop42
 90
       50
102
RTVSPost2010PropOp42
 70
     1
102
RTVSPost2010Prop43
 90
        3
102
RTVSPost2010PropOp43
 70
     1
102
RTVSPost2010Prop44ColorIndex
 90
        5
102
RTVSPost2010Prop44ColorRGB
 90
      255
102
RTVSPost2010PropOp44
 70
     1
102
RTVSPost2010Prop45
280
     0
102
RTVSPost2010PropOp45
 70
     1
102
RTVSPost2010Prop46
 90
       50
102
RTVSPost2010PropOp46
 70
     1
102
RTVSPost2010Prop47
 90
       50
102
RTVSPost2010PropOp47
 70
     1
102
RTVSPost2010Prop48
 90
       50
102
RTVSPost2010PropOp48
 70
     1
102
RTVSPost2010Prop49
280
     0
102
RTVSPost2010PropOp49
 70
     1
102
RTVSPost2010Prop50
 90
       50
102
RTVSPost2010PropOp50
 70
     1
102
RTVSPost2010Prop51ColorIndex
 90
      256
102
RTVSPost2010Prop51ColorRGB
 90
-16777216
102
RTVSPost2010PropOp51
 70
     0
102
RTVSPost2010Prop52
140
1.0
102
RTVSPost2010PropOp52
 70
     0
102
RTVSPost2010Prop53
 90
        2
102
RTVSPost2010PropOp53
 70
     1
102
RTVSPost2010Prop54
  1
strokes_ogs.tif
102
RTVSPost2010PropOp54
 70
     1
102
RTVSPost2010Prop55
280
     0
102
RTVSPost2010PropOp55
 70
     1
102
RTVSPost2010Prop56
140
1.0
102
RTVSPost2010PropOp56
 70
     1
102
RTVSPost2010Prop57
140
1.0
102
RTVSPost2010PropOp57
 70
     1
  0
XRECORD
  5
304
102
{ACAD_REACTORS
330
303
102
}
330
303
100
AcDbXrecord
280
     1
102
RTVSPost2010Prop28
280
     0
102
RTVSPost2010PropOp28
 70
     1
102
RTVSPost2010Prop29
280
     1
102
RTVSPost2010PropOp29
 70
     1
102
RTVSPost2010Prop30
280
     1
102
RTVSPost2010PropOp30
 70
     1
102
RTVSPost2010Prop31
280
     0
102
RTVSPost2010PropOp31
 70
     1
102
RTVSPost2010Prop32
280
     0
102
RTVSPost2010PropOp32
 70
     1
102
RTVSPost2010Prop33
280
     0
102
RTVSPost2010PropOp33
 70
     1
102
RTVSPost2010Prop34
280
     0
102
RTVSPost2010PropOp34
 70
     1
102
RTVSPost2010Prop35
280
     0
102
RTVSPost2010PropOp35
 70
     1
102
RTVSPost2010Prop36
280
     0
102
RTVSPost2010PropOp36
 70
     1
102
RTVSPost2010Prop37
 90
       50
102
RTVSPost2010PropOp37
 70
     1
102
RTVSPost2010Prop38
140
0.0
102
RTVSPost2010PropOp38
 70
     1
102
RTVSPost2010Prop39
140
1.0
102
RTVSPost2010PropOp39
 70
     1
102
RTVSPost2010Prop40
 90
        0
102
RTVSPost2010PropOp40
 70
     1
102
RTVSPost2010Prop41ColorIndex
 90
       18
102
RTVSPost2010Prop41ColorRGB
 90
        0
102
RTVSPost2010PropOp41
 70
     1
102
RTVSPost2010Prop42
 90
       50
102
RTVSPost2010PropOp42
 70
     1
102
RTVSPost2010Prop43
 90
        3
102
RTVSPost2010PropOp43
 70
     1
102
RTVSPost2010Prop44ColorIndex
 90
        5
102
RTVSPost2010Prop44ColorRGB
 90
      255
102
RTVSPost2010PropOp44
 70
     1
102
RTVSPost2010Prop45
280
     0
102
RTVSPost2010PropOp45
 70
     1
102
RTVSPost2010Prop46
 90
       50
102
RTVSPost2010PropOp46
 70
     1
102
RTVSPost2010Prop47
 90
       50
102
RTVSPost2010PropOp47
 70
     1
102
RTVSPost2010Prop48
 90
       50
102
RTVSPost2010PropOp48
 70
     1
102
RTVSPost2010Prop49
280
     0
102
RTVSPost2010PropOp49
 70
     1
102
RTVSPost2010Prop50
 90
       50
102
RTVSPost2010PropOp50
 70
     1
102
RTVSPost2010Prop51ColorIndex
 90
      256
102
RTVSPost2010Prop51ColorRGB
 90
-16777216
102
RTVSPost2010PropOp51
 70
     0
102
RTVSPost2010Prop52
140
1.0
102
RTVSPost2010PropOp52
 70
     0
102
RTVSPost2010Prop53
 90
        2
102
RTVSPost2010PropOp53
 70
     1
102
RTVSPost2010Prop54
  1
strokes_ogs.tif
102
RTVSPost2010PropOp54
 70
     1
102
RTVSPost2010Prop55
280
     0
102
RTVSPost2010PropOp55
 70
     1
102
RTVSPost2010Prop56
140
1.0
102
RTVSPost2010PropOp56
 70
     1
102
RTVSPost2010Prop57
140
1.0
102
RTVSPost2010PropOp57
 70
     1
  0
XRECORD
  5
31E
102
{ACAD_REACTORS
330
31D
102
}
330
31D
100
AcDbXrecord
280
     1
102
RTVSPost2010Prop28
280
     0
102
RTVSPost2010PropOp28
 70
     0
102
RTVSPost2010Prop29
280
     1
102
RTVSPost2010PropOp29
 70
     0
102
RTVSPost2010Prop30
280
     1
102
RTVSPost2010PropOp30
 70
     0
102
RTVSPost2010Prop31
280
     0
102
RTVSPost2010PropOp31
 70
     0
102
RTVSPost2010Prop32
280
     0
102
RTVSPost2010PropOp32
 70
     0
102
RTVSPost2010Prop33
280
     0
102
RTVSPost2010PropOp33
 70
     0
102
RTVSPost2010Prop34
280
     0
102
RTVSPost2010PropOp34
 70
     0
102
RTVSPost2010Prop35
280
     0
102
RTVSPost2010PropOp35
 70
     0
102
RTVSPost2010Prop36
280
     0
102
RTVSPost2010PropOp36
 70
     0
102
RTVSPost2010Prop37
 90
       50
102
RTVSPost2010PropOp37
 70
     0
102
RTVSPost2010Prop38
140
0.0
102
RTVSPost2010PropOp38
 70
     0
102
RTVSPost2010Prop39
140
1.0
102
RTVSPost2010PropOp39
 70
     0
102
RTVSPost2010Prop40
 90
        0
102
RTVSPost2010PropOp40
 70
     0
102
RTVSPost2010Prop41ColorIndex
 90
       18
102
RTVSPost2010Prop41ColorRGB
 90
        0
102
RTVSPost2010PropOp41
 70
     0
102
RTVSPost2010Prop42
 90
       50
102
RTVSPost2010PropOp42
 70
     0
102
RTVSPost2010Prop43
 90
        3
102
RTVSPost2010PropOp43
 70
     0
102
RTVSPost2010Prop44ColorIndex
 90
        5
102
RTVSPost2010Prop44ColorRGB
 90
      255
102
RTVSPost2010PropOp44
 70
     0
102
RTVSPost2010Prop45
280
     0
102
RTVSPost2010PropOp45
 70
     0
102
RTVSPost2010Prop46
 90
       50
102
RTVSPost2010PropOp46
 70
     0
102
RTVSPost2010Prop47
 90
       50
102
RTVSPost2010PropOp47
 70
     0
102
RTVSPost2010Prop48
 90
       50
102
RTVSPost2010PropOp48
 70
     0
102
RTVSPost2010Prop49
280
     0
102
RTVSPost2010PropOp49
 70
     0
102
RTVSPost2010Prop50
 90
       50
102
RTVSPost2010PropOp50
 70
     0
102
RTVSPost2010Prop51ColorIndex
 90
      256
102
RTVSPost2010Prop51ColorRGB
 90
-16777216
102
RTVSPost2010PropOp51
 70
     0
102
RTVSPost2010Prop52
140
1.0
102
RTVSPost2010PropOp52
 70
     0
102
RTVSPost2010Prop53
 90
        2
102
RTVSPost2010PropOp53
 70
     0
102
RTVSPost2010Prop54
  1
strokes_ogs.tif
102
RTVSPost2010PropOp54
 70
     0
102
RTVSPost2010Prop55
280
     0
102
RTVSPost2010PropOp55
 70
     0
102
RTVSPost2010Prop56
140
1.0
102
RTVSPost2010PropOp56
 70
     0
102
RTVSPost2010Prop57
140
1.0
102
RTVSPost2010PropOp57
 70
     0
  0
XRECORD
  5
30C
102
{ACAD_REACTORS
330
30B
102
}
330
30B
100
AcDbXrecord
280
     1
102
RTVSPost2010Prop28
280
     0
102
RTVSPost2010PropOp28
 70
     1
102
RTVSPost2010Prop29
280
     1
102
RTVSPost2010PropOp29
 70
     1
102
RTVSPost2010Prop30
280
     1
102
RTVSPost2010PropOp30
 70
     1
102
RTVSPost2010Prop31
280
     0
102
RTVSPost2010PropOp31
 70
     1
102
RTVSPost2010Prop32
280
     0
102
RTVSPost2010PropOp32
 70
     1
102
RTVSPost2010Prop33
280
     0
102
RTVSPost2010PropOp33
 70
     1
102
RTVSPost2010Prop34
280
     0
102
RTVSPost2010PropOp34
 70
     1
102
RTVSPost2010Prop35
280
     0
102
RTVSPost2010PropOp35
 70
     1
102
RTVSPost2010Prop36
280
     0
102
RTVSPost2010PropOp36
 70
     1
102
RTVSPost2010Prop37
 90
       50
102
RTVSPost2010PropOp37
 70
     1
102
RTVSPost2010Prop38
140
0.0
102
RTVSPost2010PropOp38
 70
     1
102
RTVSPost2010Prop39
140
1.0
102
RTVSPost2010PropOp39
 70
     1
102
RTVSPost2010Prop40
 90
        0
102
RTVSPost2010PropOp40
 70
     1
102
RTVSPost2010Prop41ColorIndex
 90
       18
102
RTVSPost2010Prop41ColorRGB
 90
        0
102
RTVSPost2010PropOp41
 70
     1
102
RTVSPost2010Prop42
 90
       50
102
RTVSPost2010PropOp42
 70
     1
102
RTVSPost2010Prop43
 90
        3
102
RTVSPost2010PropOp43
 70
     1
102
RTVSPost2010Prop44ColorIndex
 90
        5
102
RTVSPost2010Prop44ColorRGB
 90
      255
102
RTVSPost2010PropOp44
 70
     1
102
RTVSPost2010Prop45
280
     0
102
RTVSPost2010PropOp45
 70
     1
102
RTVSPost2010Prop46
 90
       50
102
RTVSPost2010PropOp46
 70
     1
102
RTVSPost2010Prop47
 90
       50
102
RTVSPost2010PropOp47
 70
     1
102
RTVSPost2010Prop48
 90
       50
102
RTVSPost2010PropOp48
 70
     1
102
RTVSPost2010Prop49
280
     0
102
RTVSPost2010PropOp49
 70
     1
102
RTVSPost2010Prop50
 90
       50
102
RTVSPost2010PropOp50
 70
     1
102
RTVSPost2010Prop51ColorIndex
 90
      256
102
RTVSPost2010Prop51ColorRGB
 90
-16777216
102
RTVSPost2010PropOp51
 70
     0
102
RTVSPost2010Prop52
140
1.0
102
RTVSPost2010PropOp52
 70
     0
102
RTVSPost2010Prop53
 90
        2
102
RTVSPost2010PropOp53
 70
     1
102
RTVSPost2010Prop54
  1
strokes_ogs.tif
102
RTVSPost2010PropOp54
 70
     1
102
RTVSPost2010Prop55
280
     0
102
RTVSPost2010PropOp55
 70
     1
102
RTVSPost2010Prop56
140
1.0
102
RTVSPost2010PropOp56
 70
     1
102
RTVSPost2010Prop57
140
1.0
102
RTVSPost2010PropOp57
 70
     1
  0
XRECORD
  5
2F0
102
{ACAD_REACTORS
330
2EF
102
}
330
2EF
100
AcDbXrecord
280
     1
102
RTVSPost2010Prop28
280
     0
102
RTVSPost2010PropOp28
 70
     1
102
RTVSPost2010Prop29
280
     1
102
RTVSPost2010PropOp29
 70
     1
102
RTVSPost2010Prop30
280
     1
102
RTVSPost2010PropOp30
 70
     1
102
RTVSPost2010Prop31
280
     0
102
RTVSPost2010PropOp31
 70
     1
102
RTVSPost2010Prop32
280
     0
102
RTVSPost2010PropOp32
 70
     1
102
RTVSPost2010Prop33
280
     0
102
RTVSPost2010PropOp33
 70
     1
102
RTVSPost2010Prop34
280
     0
102
RTVSPost2010PropOp34
 70
     1
102
RTVSPost2010Prop35
280
     0
102
RTVSPost2010PropOp35
 70
     1
102
RTVSPost2010Prop36
280
     0
102
RTVSPost2010PropOp36
 70
     1
102
RTVSPost2010Prop37
 90
       50
102
RTVSPost2010PropOp37
 70
     1
102
RTVSPost2010Prop38
140
0.0
102
RTVSPost2010PropOp38
 70
     1
102
RTVSPost2010Prop39
140
1.0
102
RTVSPost2010PropOp39
 70
     1
102
RTVSPost2010Prop40
 90
        0
102
RTVSPost2010PropOp40
 70
     1
102
RTVSPost2010Prop41ColorIndex
 90
       18
102
RTVSPost2010Prop41ColorRGB
 90
        0
102
RTVSPost2010PropOp41
 70
     1
102
RTVSPost2010Prop42
 90
       50
102
RTVSPost2010PropOp42
 70
     1
102
RTVSPost2010Prop43
 90
        3
102
RTVSPost2010PropOp43
 70
     1
102
RTVSPost2010Prop44ColorIndex
 90
        5
102
RTVSPost2010Prop44ColorRGB
 90
      255
102
RTVSPost2010PropOp44
 70
     1
102
RTVSPost2010Prop45
280
     0
102
RTVSPost2010PropOp45
 70
     1
102
RTVSPost2010Prop46
 90
       50
102
RTVSPost2010PropOp46
 70
     1
102
RTVSPost2010Prop47
 90
       50
102
RTVSPost2010PropOp47
 70
     1
102
RTVSPost2010Prop48
 90
       50
102
RTVSPost2010PropOp48
 70
     1
102
RTVSPost2010Prop49
280
     0
102
RTVSPost2010PropOp49
 70
     1
102
RTVSPost2010Prop50
 90
       50
102
RTVSPost2010PropOp50
 70
     1
102
RTVSPost2010Prop51ColorIndex
 90
      256
102
RTVSPost2010Prop51ColorRGB
 90
-16777216
102
RTVSPost2010PropOp51
 70
     0
102
RTVSPost2010Prop52
140
1.0
102
RTVSPost2010PropOp52
 70
     0
102
RTVSPost2010Prop53
 90
        2
102
RTVSPost2010PropOp53
 70
     1
102
RTVSPost2010Prop54
  1
strokes_ogs.tif
102
RTVSPost2010PropOp54
 70
     1
102
RTVSPost2010Prop55
280
     0
102
RTVSPost2010PropOp55
 70
     1
102
RTVSPost2010Prop56
140
1.0
102
RTVSPost2010PropOp56
 70
     1
102
RTVSPost2010Prop57
140
1.0
102
RTVSPost2010PropOp57
 70
     1
  0
XRECORD
  5
2F2
102
{ACAD_REACTORS
330
2F1
102
}
330
2F1
100
AcDbXrecord
280
     1
102
RTVSPost2010Prop28
280
     0
102
RTVSPost2010PropOp28
 70
     1
102
RTVSPost2010Prop29
280
     1
102
RTVSPost2010PropOp29
 70
     1
102
RTVSPost2010Prop30
280
     1
102
RTVSPost2010PropOp30
 70
     1
102
RTVSPost2010Prop31
280
     0
102
RTVSPost2010PropOp31
 70
     1
102
RTVSPost2010Prop32
280
     0
102
RTVSPost2010PropOp32
 70
     1
102
RTVSPost2010Prop33
280
     0
102
RTVSPost2010PropOp33
 70
     1
102
RTVSPost2010Prop34
280
     0
102
RTVSPost2010PropOp34
 70
     1
102
RTVSPost2010Prop35
280
     0
102
RTVSPost2010PropOp35
 70
     1
102
RTVSPost2010Prop36
280
     0
102
RTVSPost2010PropOp36
 70
     1
102
RTVSPost2010Prop37
 90
       50
102
RTVSPost2010PropOp37
 70
     1
102
RTVSPost2010Prop38
140
0.0
102
RTVSPost2010PropOp38
 70
     1
102
RTVSPost2010Prop39
140
1.0
102
RTVSPost2010PropOp39
 70
     1
102
RTVSPost2010Prop40
 90
        0
102
RTVSPost2010PropOp40
 70
     1
102
RTVSPost2010Prop41ColorIndex
 90
       18
102
RTVSPost2010Prop41ColorRGB
 90
        0
102
RTVSPost2010PropOp41
 70
     1
102
RTVSPost2010Prop42
 90
       50
102
RTVSPost2010PropOp42
 70
     1
102
RTVSPost2010Prop43
 90
        3
102
RTVSPost2010PropOp43
 70
     1
102
RTVSPost2010Prop44ColorIndex
 90
        5
102
RTVSPost2010Prop44ColorRGB
 90
      255
102
RTVSPost2010PropOp44
 70
     1
102
RTVSPost2010Prop45
280
     0
102
RTVSPost2010PropOp45
 70
     1
102
RTVSPost2010Prop46
 90
       50
102
RTVSPost2010PropOp46
 70
     1
102
RTVSPost2010Prop47
 90
       50
102
RTVSPost2010PropOp47
 70
     1
102
RTVSPost2010Prop48
 90
       50
102
RTVSPost2010PropOp48
 70
     1
102
RTVSPost2010Prop49
280
     0
102
RTVSPost2010PropOp49
 70
     1
102
RTVSPost2010Prop50
 90
       50
102
RTVSPost2010PropOp50
 70
     1
102
RTVSPost2010Prop51ColorIndex
 90
      256
102
RTVSPost2010Prop51ColorRGB
 90
-16777216
102
RTVSPost2010PropOp51
 70
     0
102
RTVSPost2010Prop52
140
1.0
102
RTVSPost2010PropOp52
 70
     0
102
RTVSPost2010Prop53
 90
        2
102
RTVSPost2010PropOp53
 70
     1
102
RTVSPost2010Prop54
  1
strokes_ogs.tif
102
RTVSPost2010PropOp54
 70
     1
102
RTVSPost2010Prop55
280
     0
102
RTVSPost2010PropOp55
 70
     1
102
RTVSPost2010Prop56
140
1.0
102
RTVSPost2010PropOp56
 70
     1
102
RTVSPost2010Prop57
140
1.0
102
RTVSPost2010PropOp57
 70
     1
  0
XRECORD
  5
2F4
102
{ACAD_REACTORS
330
2F3
102
}
330
2F3
100
AcDbXrecord
280
     1
102
RTVSPost2010Prop28
280
     0
102
RTVSPost2010PropOp28
 70
     1
102
RTVSPost2010Prop29
280
     1
102
RTVSPost2010PropOp29
 70
     1
102
RTVSPost2010Prop30
280
     1
102
RTVSPost2010PropOp30
 70
     1
102
RTVSPost2010Prop31
280
     0
102
RTVSPost2010PropOp31
 70
     1
102
RTVSPost2010Prop32
280
     0
102
RTVSPost2010PropOp32
 70
     1
102
RTVSPost2010Prop33
280
     0
102
RTVSPost2010PropOp33
 70
     1
102
RTVSPost2010Prop34
280
     0
102
RTVSPost2010PropOp34
 70
     1
102
RTVSPost2010Prop35
280
     0
102
RTVSPost2010PropOp35
 70
     1
102
RTVSPost2010Prop36
280
     0
102
RTVSPost2010PropOp36
 70
     1
102
RTVSPost2010Prop37
 90
       50
102
RTVSPost2010PropOp37
 70
     1
102
RTVSPost2010Prop38
140
0.0
102
RTVSPost2010PropOp38
 70
     1
102
RTVSPost2010Prop39
140
1.0
102
RTVSPost2010PropOp39
 70
     1
102
RTVSPost2010Prop40
 90
        0
102
RTVSPost2010PropOp40
 70
     1
102
RTVSPost2010Prop41ColorIndex
 90
       18
102
RTVSPost2010Prop41ColorRGB
 90
        0
102
RTVSPost2010PropOp41
 70
     1
102
RTVSPost2010Prop42
 90
       50
102
RTVSPost2010PropOp42
 70
     1
102
RTVSPost2010Prop43
 90
        3
102
RTVSPost2010PropOp43
 70
     1
102
RTVSPost2010Prop44ColorIndex
 90
        5
102
RTVSPost2010Prop44ColorRGB
 90
      255
102
RTVSPost2010PropOp44
 70
     1
102
RTVSPost2010Prop45
280
     0
102
RTVSPost2010PropOp45
 70
     1
102
RTVSPost2010Prop46
 90
       50
102
RTVSPost2010PropOp46
 70
     1
102
RTVSPost2010Prop47
 90
       50
102
RTVSPost2010PropOp47
 70
     1
102
RTVSPost2010Prop48
 90
       50
102
RTVSPost2010PropOp48
 70
     1
102
RTVSPost2010Prop49
280
     0
102
RTVSPost2010PropOp49
 70
     1
102
RTVSPost2010Prop50
 90
       50
102
RTVSPost2010PropOp50
 70
     1
102
RTVSPost2010Prop51ColorIndex
 90
      256
102
RTVSPost2010Prop51ColorRGB
 90
-16777216
102
RTVSPost2010PropOp51
 70
     0
102
RTVSPost2010Prop52
140
1.0
102
RTVSPost2010PropOp52
 70
     0
102
RTVSPost2010Prop53
 90
        2
102
RTVSPost2010PropOp53
 70
     1
102
RTVSPost2010Prop54
  1
strokes_ogs.tif
102
RTVSPost2010PropOp54
 70
     1
102
RTVSPost2010Prop55
280
     0
102
RTVSPost2010PropOp55
 70
     1
102
RTVSPost2010Prop56
140
1.0
102
RTVSPost2010PropOp56
 70
     1
102
RTVSPost2010Prop57
140
1.0
102
RTVSPost2010PropOp57
 70
     1
  0
XRECORD
  5
2F6
102
{ACAD_REACTORS
330
2F5
102
}
330
2F5
100
AcDbXrecord
280
     1
102
RTVSPost2010Prop28
280
     0
102
RTVSPost2010PropOp28
 70
     1
102
RTVSPost2010Prop29
280
     1
102
RTVSPost2010PropOp29
 70
     1
102
RTVSPost2010Prop30
280
     1
102
RTVSPost2010PropOp30
 70
     1
102
RTVSPost2010Prop31
280
     0
102
RTVSPost2010PropOp31
 70
     1
102
RTVSPost2010Prop32
280
     0
102
RTVSPost2010PropOp32
 70
     1
102
RTVSPost2010Prop33
280
     0
102
RTVSPost2010PropOp33
 70
     1
102
RTVSPost2010Prop34
280
     0
102
RTVSPost2010PropOp34
 70
     1
102
RTVSPost2010Prop35
280
     0
102
RTVSPost2010PropOp35
 70
     1
102
RTVSPost2010Prop36
280
     0
102
RTVSPost2010PropOp36
 70
     1
102
RTVSPost2010Prop37
 90
       50
102
RTVSPost2010PropOp37
 70
     1
102
RTVSPost2010Prop38
140
0.0
102
RTVSPost2010PropOp38
 70
     1
102
RTVSPost2010Prop39
140
1.0
102
RTVSPost2010PropOp39
 70
     1
102
RTVSPost2010Prop40
 90
        0
102
RTVSPost2010PropOp40
 70
     1
102
RTVSPost2010Prop41ColorIndex
 90
       18
102
RTVSPost2010Prop41ColorRGB
 90
        0
102
RTVSPost2010PropOp41
 70
     1
102
RTVSPost2010Prop42
 90
       50
102
RTVSPost2010PropOp42
 70
     1
102
RTVSPost2010Prop43
 90
        3
102
RTVSPost2010PropOp43
 70
     1
102
RTVSPost2010Prop44ColorIndex
 90
        5
102
RTVSPost2010Prop44ColorRGB
 90
      255
102
RTVSPost2010PropOp44
 70
     1
102
RTVSPost2010Prop45
280
     0
102
RTVSPost2010PropOp45
 70
     1
102
RTVSPost2010Prop46
 90
       50
102
RTVSPost2010PropOp46
 70
     1
102
RTVSPost2010Prop47
 90
       50
102
RTVSPost2010PropOp47
 70
     1
102
RTVSPost2010Prop48
 90
       50
102
RTVSPost2010PropOp48
 70
     1
102
RTVSPost2010Prop49
280
     0
102
RTVSPost2010PropOp49
 70
     1
102
RTVSPost2010Prop50
 90
       50
102
RTVSPost2010PropOp50
 70
     1
102
RTVSPost2010Prop51ColorIndex
 90
      256
102
RTVSPost2010Prop51ColorRGB
 90
-16777216
102
RTVSPost2010PropOp51
 70
     0
102
RTVSPost2010Prop52
140
1.0
102
RTVSPost2010PropOp52
 70
     0
102
RTVSPost2010Prop53
 90
        2
102
RTVSPost2010PropOp53
 70
     1
102
RTVSPost2010Prop54
  1
strokes_ogs.tif
102
RTVSPost2010PropOp54
 70
     1
102
RTVSPost2010Prop55
280
     0
102
RTVSPost2010PropOp55
 70
     1
102
RTVSPost2010Prop56
140
1.0
102
RTVSPost2010PropOp56
 70
     1
102
RTVSPost2010Prop57
140
1.0
102
RTVSPost2010PropOp57
 70
     1
  0
XRECORD
  5
2FE
102
{ACAD_REACTORS
330
2FD
102
}
330
2FD
100
AcDbXrecord
280
     1
102
RTVSPost2010Prop28
280
     0
102
RTVSPost2010PropOp28
 70
     1
102
RTVSPost2010Prop29
280
     1
102
RTVSPost2010PropOp29
 70
     1
102
RTVSPost2010Prop30
280
     1
102
RTVSPost2010PropOp30
 70
     1
102
RTVSPost2010Prop31
280
     0
102
RTVSPost2010PropOp31
 70
     1
102
RTVSPost2010Prop32
280
     0
102
RTVSPost2010PropOp32
 70
     1
102
RTVSPost2010Prop33
280
     0
102
RTVSPost2010PropOp33
 70
     1
102
RTVSPost2010Prop34
280
     0
102
RTVSPost2010PropOp34
 70
     1
102
RTVSPost2010Prop35
280
     0
102
RTVSPost2010PropOp35
 70
     1
102
RTVSPost2010Prop36
280
     0
102
RTVSPost2010PropOp36
 70
     1
102
RTVSPost2010Prop37
 90
       50
102
RTVSPost2010PropOp37
 70
     1
102
RTVSPost2010Prop38
140
0.0
102
RTVSPost2010PropOp38
 70
     1
102
RTVSPost2010Prop39
140
1.0
102
RTVSPost2010PropOp39
 70
     1
102
RTVSPost2010Prop40
 90
        0
102
RTVSPost2010PropOp40
 70
     1
102
RTVSPost2010Prop41ColorIndex
 90
       18
102
RTVSPost2010Prop41ColorRGB
 90
        0
102
RTVSPost2010PropOp41
 70
     1
102
RTVSPost2010Prop42
 90
       50
102
RTVSPost2010PropOp42
 70
     1
102
RTVSPost2010Prop43
 90
        3
102
RTVSPost2010PropOp43
 70
     1
102
RTVSPost2010Prop44ColorIndex
 90
        5
102
RTVSPost2010Prop44ColorRGB
 90
      255
102
RTVSPost2010PropOp44
 70
     1
102
RTVSPost2010Prop45
280
     0
102
RTVSPost2010PropOp45
 70
     1
102
RTVSPost2010Prop46
 90
       50
102
RTVSPost2010PropOp46
 70
     1
102
RTVSPost2010Prop47
 90
       50
102
RTVSPost2010PropOp47
 70
     1
102
RTVSPost2010Prop48
 90
       50
102
RTVSPost2010PropOp48
 70
     1
102
RTVSPost2010Prop49
280
     0
102
RTVSPost2010PropOp49
 70
     1
102
RTVSPost2010Prop50
 90
       50
102
RTVSPost2010PropOp50
 70
     1
102
RTVSPost2010Prop51ColorIndex
 90
      256
102
RTVSPost2010Prop51ColorRGB
 90
-16777216
102
RTVSPost2010PropOp51
 70
     0
102
RTVSPost2010Prop52
140
1.0
102
RTVSPost2010PropOp52
 70
     0
102
RTVSPost2010Prop53
 90
        2
102
RTVSPost2010PropOp53
 70
     1
102
RTVSPost2010Prop54
  1
strokes_ogs.tif
102
RTVSPost2010PropOp54
 70
     1
102
RTVSPost2010Prop55
280
     0
102
RTVSPost2010PropOp55
 70
     1
102
RTVSPost2010Prop56
140
1.0
102
RTVSPost2010PropOp56
 70
     1
102
RTVSPost2010Prop57
140
1.0
102
RTVSPost2010PropOp57
 70
     1
  0
XRECORD
  5
31A
102
{ACAD_REACTORS
330
319
102
}
330
319
100
AcDbXrecord
280
     1
102
RTVSPost2010Prop28
280
     0
102
RTVSPost2010PropOp28
 70
     0
102
RTVSPost2010Prop29
280
     1
102
RTVSPost2010PropOp29
 70
     0
102
RTVSPost2010Prop30
280
     1
102
RTVSPost2010PropOp30
 70
     0
102
RTVSPost2010Prop31
280
     0
102
RTVSPost2010PropOp31
 70
     0
102
RTVSPost2010Prop32
280
     0
102
RTVSPost2010PropOp32
 70
     0
102
RTVSPost2010Prop33
280
     0
102
RTVSPost2010PropOp33
 70
     0
102
RTVSPost2010Prop34
280
     0
102
RTVSPost2010PropOp34
 70
     0
102
RTVSPost2010Prop35
280
     0
102
RTVSPost2010PropOp35
 70
     0
102
RTVSPost2010Prop36
280
     0
102
RTVSPost2010PropOp36
 70
     0
102
RTVSPost2010Prop37
 90
       50
102
RTVSPost2010PropOp37
 70
     0
102
RTVSPost2010Prop38
140
0.0
102
RTVSPost2010PropOp38
 70
     0
102
RTVSPost2010Prop39
140
1.0
102
RTVSPost2010PropOp39
 70
     0
102
RTVSPost2010Prop40
 90
        0
102
RTVSPost2010PropOp40
 70
     0
102
RTVSPost2010Prop41ColorIndex
 90
       18
102
RTVSPost2010Prop41ColorRGB
 90
        0
102
RTVSPost2010PropOp41
 70
     0
102
RTVSPost2010Prop42
 90
       50
102
RTVSPost2010PropOp42
 70
     0
102
RTVSPost2010Prop43
 90
        3
102
RTVSPost2010PropOp43
 70
     0
102
RTVSPost2010Prop44ColorIndex
 90
        5
102
RTVSPost2010Prop44ColorRGB
 90
      255
102
RTVSPost2010PropOp44
 70
     0
102
RTVSPost2010Prop45
280
     0
102
RTVSPost2010PropOp45
 70
     0
102
RTVSPost2010Prop46
 90
       50
102
RTVSPost2010PropOp46
 70
     0
102
RTVSPost2010Prop47
 90
       50
102
RTVSPost2010PropOp47
 70
     0
102
RTVSPost2010Prop48
 90
       50
102
RTVSPost2010PropOp48
 70
     0
102
RTVSPost2010Prop49
280
     0
102
RTVSPost2010PropOp49
 70
     0
102
RTVSPost2010Prop50
 90
       50
102
RTVSPost2010PropOp50
 70
     0
102
RTVSPost2010Prop51ColorIndex
 90
      256
102
RTVSPost2010Prop51ColorRGB
 90
-16777216
102
RTVSPost2010PropOp51
 70
     0
102
RTVSPost2010Prop52
140
1.0
102
RTVSPost2010PropOp52
 70
     0
102
RTVSPost2010Prop53
 90
        2
102
RTVSPost2010PropOp53
 70
     0
102
RTVSPost2010Prop54
  1
strokes_ogs.tif
102
RTVSPost2010PropOp54
 70
     0
102
RTVSPost2010Prop55
280
     0
102
RTVSPost2010PropOp55
 70
     0
102
RTVSPost2010Prop56
140
1.0
102
RTVSPost2010PropOp56
 70
     0
102
RTVSPost2010Prop57
140
1.0
102
RTVSPost2010PropOp57
 70
     0
  0
XRECORD
  5
30A
102
{ACAD_REACTORS
330
309
102
}
330
309
100
AcDbXrecord
280
     1
102
RTVSPost2010Prop28
280
     0
102
RTVSPost2010PropOp28
 70
     1
102
RTVSPost2010Prop29
280
     1
102
RTVSPost2010PropOp29
 70
     1
102
RTVSPost2010Prop30
280
     1
102
RTVSPost2010PropOp30
 70
     1
102
RTVSPost2010Prop31
280
     0
102
RTVSPost2010PropOp31
 70
     1
102
RTVSPost2010Prop32
280
     0
102
RTVSPost2010PropOp32
 70
     1
102
RTVSPost2010Prop33
280
     0
102
RTVSPost2010PropOp33
 70
     1
102
RTVSPost2010Prop34
280
     0
102
RTVSPost2010PropOp34
 70
     1
102
RTVSPost2010Prop35
280
     0
102
RTVSPost2010PropOp35
 70
     1
102
RTVSPost2010Prop36
280
     0
102
RTVSPost2010PropOp36
 70
     1
102
RTVSPost2010Prop37
 90
       50
102
RTVSPost2010PropOp37
 70
     1
102
RTVSPost2010Prop38
140
0.0
102
RTVSPost2010PropOp38
 70
     1
102
RTVSPost2010Prop39
140
1.0
102
RTVSPost2010PropOp39
 70
     1
102
RTVSPost2010Prop40
 90
        0
102
RTVSPost2010PropOp40
 70
     1
102
RTVSPost2010Prop41ColorIndex
 90
       18
102
RTVSPost2010Prop41ColorRGB
 90
        0
102
RTVSPost2010PropOp41
 70
     1
102
RTVSPost2010Prop42
 90
       50
102
RTVSPost2010PropOp42
 70
     1
102
RTVSPost2010Prop43
 90
        3
102
RTVSPost2010PropOp43
 70
     1
102
RTVSPost2010Prop44ColorIndex
 90
        5
102
RTVSPost2010Prop44ColorRGB
 90
      255
102
RTVSPost2010PropOp44
 70
     1
102
RTVSPost2010Prop45
280
     0
102
RTVSPost2010PropOp45
 70
     1
102
RTVSPost2010Prop46
 90
       50
102
RTVSPost2010PropOp46
 70
     1
102
RTVSPost2010Prop47
 90
       50
102
RTVSPost2010PropOp47
 70
     1
102
RTVSPost2010Prop48
 90
       50
102
RTVSPost2010PropOp48
 70
     1
102
RTVSPost2010Prop49
280
     0
102
RTVSPost2010PropOp49
 70
     1
102
RTVSPost2010Prop50
 90
       50
102
RTVSPost2010PropOp50
 70
     1
102
RTVSPost2010Prop51ColorIndex
 90
      256
102
RTVSPost2010Prop51ColorRGB
 90
-16777216
102
RTVSPost2010PropOp51
 70
     0
102
RTVSPost2010Prop52
140
1.0
102
RTVSPost2010PropOp52
 70
     0
102
RTVSPost2010Prop53
 90
        2
102
RTVSPost2010PropOp53
 70
     1
102
RTVSPost2010Prop54
  1
strokes_ogs.tif
102
RTVSPost2010PropOp54
 70
     1
102
RTVSPost2010Prop55
280
     0
102
RTVSPost2010PropOp55
 70
     1
102
RTVSPost2010Prop56
140
1.0
102
RTVSPost2010PropOp56
 70
     1
102
RTVSPost2010Prop57
140
1.0
102
RTVSPost2010PropOp57
 70
     1
  0
XRECORD
  5
31C
102
{ACAD_REACTORS
330
31B
102
}
330
31B
100
AcDbXrecord
280
     1
102
RTVSPost2010Prop28
280
     0
102
RTVSPost2010PropOp28
 70
     0
102
RTVSPost2010Prop29
280
     1
102
RTVSPost2010PropOp29
 70
     0
102
RTVSPost2010Prop30
280
     1
102
RTVSPost2010PropOp30
 70
     0
102
RTVSPost2010Prop31
280
     0
102
RTVSPost2010PropOp31
 70
     0
102
RTVSPost2010Prop32
280
     0
102
RTVSPost2010PropOp32
 70
     0
102
RTVSPost2010Prop33
280
     0
102
RTVSPost2010PropOp33
 70
     0
102
RTVSPost2010Prop34
280
     0
102
RTVSPost2010PropOp34
 70
     0
102
RTVSPost2010Prop35
280
     0
102
RTVSPost2010PropOp35
 70
     0
102
RTVSPost2010Prop36
280
     0
102
RTVSPost2010PropOp36
 70
     0
102
RTVSPost2010Prop37
 90
       50
102
RTVSPost2010PropOp37
 70
     0
102
RTVSPost2010Prop38
140
0.0
102
RTVSPost2010PropOp38
 70
     0
102
RTVSPost2010Prop39
140
1.0
102
RTVSPost2010PropOp39
 70
     0
102
RTVSPost2010Prop40
 90
        0
102
RTVSPost2010PropOp40
 70
     0
102
RTVSPost2010Prop41ColorIndex
 90
       18
102
RTVSPost2010Prop41ColorRGB
 90
        0
102
RTVSPost2010PropOp41
 70
     0
102
RTVSPost2010Prop42
 90
       50
102
RTVSPost2010PropOp42
 70
     0
102
RTVSPost2010Prop43
 90
        3
102
RTVSPost2010PropOp43
 70
     0
102
RTVSPost2010Prop44ColorIndex
 90
        5
102
RTVSPost2010Prop44ColorRGB
 90
      255
102
RTVSPost2010PropOp44
 70
     0
102
RTVSPost2010Prop45
280
     0
102
RTVSPost2010PropOp45
 70
     0
102
RTVSPost2010Prop46
 90
       50
102
RTVSPost2010PropOp46
 70
     0
102
RTVSPost2010Prop47
 90
       50
102
RTVSPost2010PropOp47
 70
     0
102
RTVSPost2010Prop48
 90
       50
102
RTVSPost2010PropOp48
 70
     0
102
RTVSPost2010Prop49
280
     0
102
RTVSPost2010PropOp49
 70
     0
102
RTVSPost2010Prop50
 90
       50
102
RTVSPost2010PropOp50
 70
     0
102
RTVSPost2010Prop51ColorIndex
 90
      256
102
RTVSPost2010Prop51ColorRGB
 90
-16777216
102
RTVSPost2010PropOp51
 70
     0
102
RTVSPost2010Prop52
140
1.0
102
RTVSPost2010PropOp52
 70
     0
102
RTVSPost2010Prop53
 90
        2
102
RTVSPost2010PropOp53
 70
     0
102
RTVSPost2010Prop54
  1
strokes_ogs.tif
102
RTVSPost2010PropOp54
 70
     0
102
RTVSPost2010Prop55
280
     0
102
RTVSPost2010PropOp55
 70
     0
102
RTVSPost2010Prop56
140
1.0
102
RTVSPost2010PropOp56
 70
     0
102
RTVSPost2010Prop57
140
1.0
102
RTVSPost2010PropOp57
 70
     0
  0
XRECORD
  5
302
102
{ACAD_REACTORS
330
301
102
}
330
301
100
AcDbXrecord
280
     1
102
RTVSPost2010Prop28
280
     0
102
RTVSPost2010PropOp28
 70
     1
102
RTVSPost2010Prop29
280
     1
102
RTVSPost2010PropOp29
 70
     1
102
RTVSPost2010Prop30
280
     1
102
RTVSPost2010PropOp30
 70
     1
102
RTVSPost2010Prop31
280
     0
102
RTVSPost2010PropOp31
 70
     1
102
RTVSPost2010Prop32
280
     0
102
RTVSPost2010PropOp32
 70
     1
102
RTVSPost2010Prop33
280
     0
102
RTVSPost2010PropOp33
 70
     1
102
RTVSPost2010Prop34
280
     0
102
RTVSPost2010PropOp34
 70
     1
102
RTVSPost2010Prop35
280
     0
102
RTVSPost2010PropOp35
 70
     1
102
RTVSPost2010Prop36
280
     0
102
RTVSPost2010PropOp36
 70
     1
102
RTVSPost2010Prop37
 90
       50
102
RTVSPost2010PropOp37
 70
     1
102
RTVSPost2010Prop38
140
0.0
102
RTVSPost2010PropOp38
 70
     1
102
RTVSPost2010Prop39
140
1.0
102
RTVSPost2010PropOp39
 70
     1
102
RTVSPost2010Prop40
 90
        0
102
RTVSPost2010PropOp40
 70
     1
102
RTVSPost2010Prop41ColorIndex
 90
       18
102
RTVSPost2010Prop41ColorRGB
 90
        0
102
RTVSPost2010PropOp41
 70
     1
102
RTVSPost2010Prop42
 90
       50
102
RTVSPost2010PropOp42
 70
     1
102
RTVSPost2010Prop43
 90
        3
102
RTVSPost2010PropOp43
 70
     1
102
RTVSPost2010Prop44ColorIndex
 90
        5
102
RTVSPost2010Prop44ColorRGB
 90
      255
102
RTVSPost2010PropOp44
 70
     1
102
RTVSPost2010Prop45
280
     0
102
RTVSPost2010PropOp45
 70
     1
102
RTVSPost2010Prop46
 90
       50
102
RTVSPost2010PropOp46
 70
     1
102
RTVSPost2010Prop47
 90
       50
102
RTVSPost2010PropOp47
 70
     1
102
RTVSPost2010Prop48
 90
       50
102
RTVSPost2010PropOp48
 70
     1
102
RTVSPost2010Prop49
280
     0
102
RTVSPost2010PropOp49
 70
     1
102
RTVSPost2010Prop50
 90
       50
102
RTVSPost2010PropOp50
 70
     1
102
RTVSPost2010Prop51ColorIndex
 90
      256
102
RTVSPost2010Prop51ColorRGB
 90
-16777216
102
RTVSPost2010PropOp51
 70
     0
102
RTVSPost2010Prop52
140
1.0
102
RTVSPost2010PropOp52
 70
     0
102
RTVSPost2010Prop53
 90
        2
102
RTVSPost2010PropOp53
 70
     1
102
RTVSPost2010Prop54
  1
strokes_ogs.tif
102
RTVSPost2010PropOp54
 70
     1
102
RTVSPost2010Prop55
280
     0
102
RTVSPost2010PropOp55
 70
     1
102
RTVSPost2010Prop56
140
1.0
102
RTVSPost2010PropOp56
 70
     1
102
RTVSPost2010Prop57
140
1.0
102
RTVSPost2010PropOp57
 70
     1
  0
XRECORD
  5
318
102
{ACAD_REACTORS
330
317
102
}
330
317
100
AcDbXrecord
280
     1
102
RTVSPost2010Prop28
280
     0
102
RTVSPost2010PropOp28
 70
     1
102
RTVSPost2010Prop29
280
     1
102
RTVSPost2010PropOp29
 70
     1
102
RTVSPost2010Prop30
280
     1
102
RTVSPost2010PropOp30
 70
     1
102
RTVSPost2010Prop31
280
     0
102
RTVSPost2010PropOp31
 70
     1
102
RTVSPost2010Prop32
280
     0
102
RTVSPost2010PropOp32
 70
     1
102
RTVSPost2010Prop33
280
     0
102
RTVSPost2010PropOp33
 70
     1
102
RTVSPost2010Prop34
280
     0
102
RTVSPost2010PropOp34
 70
     1
102
RTVSPost2010Prop35
280
     0
102
RTVSPost2010PropOp35
 70
     1
102
RTVSPost2010Prop36
280
     0
102
RTVSPost2010PropOp36
 70
     1
102
RTVSPost2010Prop37
 90
       50
102
RTVSPost2010PropOp37
 70
     1
102
RTVSPost2010Prop38
140
0.0
102
RTVSPost2010PropOp38
 70
     1
102
RTVSPost2010Prop39
140
1.0
102
RTVSPost2010PropOp39
 70
     1
102
RTVSPost2010Prop40
 90
        0
102
RTVSPost2010PropOp40
 70
     1
102
RTVSPost2010Prop41ColorIndex
 90
       18
102
RTVSPost2010Prop41ColorRGB
 90
        0
102
RTVSPost2010PropOp41
 70
     1
102
RTVSPost2010Prop42
 90
       50
102
RTVSPost2010PropOp42
 70
     1
102
RTVSPost2010Prop43
 90
        3
102
RTVSPost2010PropOp43
 70
     1
102
RTVSPost2010Prop44ColorIndex
 90
        5
102
RTVSPost2010Prop44ColorRGB
 90
      255
102
RTVSPost2010PropOp44
 70
     1
102
RTVSPost2010Prop45
280
     0
102
RTVSPost2010PropOp45
 70
     1
102
RTVSPost2010Prop46
 90
       50
102
RTVSPost2010PropOp46
 70
     1
102
RTVSPost2010Prop47
 90
       50
102
RTVSPost2010PropOp47
 70
     1
102
RTVSPost2010Prop48
 90
       50
102
RTVSPost2010PropOp48
 70
     1
102
RTVSPost2010Prop49
280
     0
102
RTVSPost2010PropOp49
 70
     1
102
RTVSPost2010Prop50
 90
       50
102
RTVSPost2010PropOp50
 70
     1
102
RTVSPost2010Prop51ColorIndex
 90
      256
102
RTVSPost2010Prop51ColorRGB
 90
-16777216
102
RTVSPost2010PropOp51
 70
     0
102
RTVSPost2010Prop52
140
1.0
102
RTVSPost2010PropOp52
 70
     0
102
RTVSPost2010Prop53
 90
        2
102
RTVSPost2010PropOp53
 70
     1
102
RTVSPost2010Prop54
  1
strokes_ogs.tif
102
RTVSPost2010PropOp54
 70
     1
102
RTVSPost2010Prop55
280
     0
102
RTVSPost2010PropOp55
 70
     1
102
RTVSPost2010Prop56
140
1.0
102
RTVSPost2010PropOp56
 70
     1
102
RTVSPost2010Prop57
140
1.0
102
RTVSPost2010PropOp57
 70
     1
  0
XRECORD
  5
316
102
{ACAD_REACTORS
330
315
102
}
330
315
100
AcDbXrecord
280
     1
102
RTVSPost2010Prop28
280
     0
102
RTVSPost2010PropOp28
 70
     1
102
RTVSPost2010Prop29
280
     1
102
RTVSPost2010PropOp29
 70
     1
102
RTVSPost2010Prop30
280
     1
102
RTVSPost2010PropOp30
 70
     1
102
RTVSPost2010Prop31
280
     0
102
RTVSPost2010PropOp31
 70
     1
102
RTVSPost2010Prop32
280
     0
102
RTVSPost2010PropOp32
 70
     1
102
RTVSPost2010Prop33
280
     0
102
RTVSPost2010PropOp33
 70
     1
102
RTVSPost2010Prop34
280
     0
102
RTVSPost2010PropOp34
 70
     1
102
RTVSPost2010Prop35
280
     0
102
RTVSPost2010PropOp35
 70
     1
102
RTVSPost2010Prop36
280
     0
102
RTVSPost2010PropOp36
 70
     1
102
RTVSPost2010Prop37
 90
       50
102
RTVSPost2010PropOp37
 70
     1
102
RTVSPost2010Prop38
140
0.0
102
RTVSPost2010PropOp38
 70
     1
102
RTVSPost2010Prop39
140
1.0
102
RTVSPost2010PropOp39
 70
     1
102
RTVSPost2010Prop40
 90
        0
102
RTVSPost2010PropOp40
 70
     1
102
RTVSPost2010Prop41ColorIndex
 90
       18
102
RTVSPost2010Prop41ColorRGB
 90
        0
102
RTVSPost2010PropOp41
 70
     1
102
RTVSPost2010Prop42
 90
       50
102
RTVSPost2010PropOp42
 70
     1
102
RTVSPost2010Prop43
 90
        3
102
RTVSPost2010PropOp43
 70
     1
102
RTVSPost2010Prop44ColorIndex
 90
        5
102
RTVSPost2010Prop44ColorRGB
 90
      255
102
RTVSPost2010PropOp44
 70
     1
102
RTVSPost2010Prop45
280
     0
102
RTVSPost2010PropOp45
 70
     1
102
RTVSPost2010Prop46
 90
       50
102
RTVSPost2010PropOp46
 70
     1
102
RTVSPost2010Prop47
 90
       50
102
RTVSPost2010PropOp47
 70
     1
102
RTVSPost2010Prop48
 90
       50
102
RTVSPost2010PropOp48
 70
     1
102
RTVSPost2010Prop49
280
     0
102
RTVSPost2010PropOp49
 70
     1
102
RTVSPost2010Prop50
 90
       50
102
RTVSPost2010PropOp50
 70
     1
102
RTVSPost2010Prop51ColorIndex
 90
      256
102
RTVSPost2010Prop51ColorRGB
 90
-16777216
102
RTVSPost2010PropOp51
 70
     0
102
RTVSPost2010Prop52
140
1.0
102
RTVSPost2010PropOp52
 70
     0
102
RTVSPost2010Prop53
 90
        2
102
RTVSPost2010PropOp53
 70
     1
102
RTVSPost2010Prop54
  1
strokes_ogs.tif
102
RTVSPost2010PropOp54
 70
     1
102
RTVSPost2010Prop55
280
     0
102
RTVSPost2010PropOp55
 70
     1
102
RTVSPost2010Prop56
140
1.0
102
RTVSPost2010PropOp56
 70
     1
102
RTVSPost2010Prop57
140
1.0
102
RTVSPost2010PropOp57
 70
     1
  0
XRECORD
  5
310
102
{ACAD_REACTORS
330
30F
102
}
330
30F
100
AcDbXrecord
280
     1
102
RTVSPost2010Prop28
280
     0
102
RTVSPost2010PropOp28
 70
     1
102
RTVSPost2010Prop29
280
     1
102
RTVSPost2010PropOp29
 70
     1
102
RTVSPost2010Prop30
280
     1
102
RTVSPost2010PropOp30
 70
     1
102
RTVSPost2010Prop31
280
     0
102
RTVSPost2010PropOp31
 70
     1
102
RTVSPost2010Prop32
280
     0
102
RTVSPost2010PropOp32
 70
     1
102
RTVSPost2010Prop33
280
     0
102
RTVSPost2010PropOp33
 70
     1
102
RTVSPost2010Prop34
280
     0
102
RTVSPost2010PropOp34
 70
     1
102
RTVSPost2010Prop35
280
     0
102
RTVSPost2010PropOp35
 70
     1
102
RTVSPost2010Prop36
280
     0
102
RTVSPost2010PropOp36
 70
     1
102
RTVSPost2010Prop37
 90
       50
102
RTVSPost2010PropOp37
 70
     1
102
RTVSPost2010Prop38
140
0.0
102
RTVSPost2010PropOp38
 70
     1
102
RTVSPost2010Prop39
140
1.0
102
RTVSPost2010PropOp39
 70
     1
102
RTVSPost2010Prop40
 90
        0
102
RTVSPost2010PropOp40
 70
     1
102
RTVSPost2010Prop41ColorIndex
 90
       18
102
RTVSPost2010Prop41ColorRGB
 90
        0
102
RTVSPost2010PropOp41
 70
     1
102
RTVSPost2010Prop42
 90
       50
102
RTVSPost2010PropOp42
 70
     1
102
RTVSPost2010Prop43
 90
        3
102
RTVSPost2010PropOp43
 70
     1
102
RTVSPost2010Prop44ColorIndex
 90
        5
102
RTVSPost2010Prop44ColorRGB
 90
      255
102
RTVSPost2010PropOp44
 70
     1
102
RTVSPost2010Prop45
280
     0
102
RTVSPost2010PropOp45
 70
     1
102
RTVSPost2010Prop46
 90
       50
102
RTVSPost2010PropOp46
 70
     1
102
RTVSPost2010Prop47
 90
       50
102
RTVSPost2010PropOp47
 70
     1
102
RTVSPost2010Prop48
 90
       50
102
RTVSPost2010PropOp48
 70
     1
102
RTVSPost2010Prop49
280
     0
102
RTVSPost2010PropOp49
 70
     1
102
RTVSPost2010Prop50
 90
       50
102
RTVSPost2010PropOp50
 70
     1
102
RTVSPost2010Prop51ColorIndex
 90
      256
102
RTVSPost2010Prop51ColorRGB
 90
-16777216
102
RTVSPost2010PropOp51
 70
     0
102
RTVSPost2010Prop52
140
1.0
102
RTVSPost2010PropOp52
 70
     0
102
RTVSPost2010Prop53
 90
        2
102
RTVSPost2010PropOp53
 70
     1
102
RTVSPost2010Prop54
  1
strokes_ogs.tif
102
RTVSPost2010PropOp54
 70
     1
102
RTVSPost2010Prop55
280
     0
102
RTVSPost2010PropOp55
 70
     1
102
RTVSPost2010Prop56
140
1.0
102
RTVSPost2010PropOp56
 70
     1
102
RTVSPost2010Prop57
140
1.0
102
RTVSPost2010PropOp57
 70
     1
  0
XRECORD
  5
312
102
{ACAD_REACTORS
330
311
102
}
330
311
100
AcDbXrecord
280
     1
102
RTVSPost2010Prop28
280
     0
102
RTVSPost2010PropOp28
 70
     1
102
RTVSPost2010Prop29
280
     1
102
RTVSPost2010PropOp29
 70
     1
102
RTVSPost2010Prop30
280
     1
102
RTVSPost2010PropOp30
 70
     1
102
RTVSPost2010Prop31
280
     0
102
RTVSPost2010PropOp31
 70
     1
102
RTVSPost2010Prop32
280
     0
102
RTVSPost2010PropOp32
 70
     1
102
RTVSPost2010Prop33
280
     0
102
RTVSPost2010PropOp33
 70
     1
102
RTVSPost2010Prop34
280
     0
102
RTVSPost2010PropOp34
 70
     1
102
RTVSPost2010Prop35
280
     0
102
RTVSPost2010PropOp35
 70
     1
102
RTVSPost2010Prop36
280
     0
102
RTVSPost2010PropOp36
 70
     1
102
RTVSPost2010Prop37
 90
       50
102
RTVSPost2010PropOp37
 70
     1
102
RTVSPost2010Prop38
140
0.0
102
RTVSPost2010PropOp38
 70
     1
102
RTVSPost2010Prop39
140
1.0
102
RTVSPost2010PropOp39
 70
     1
102
RTVSPost2010Prop40
 90
        0
102
RTVSPost2010PropOp40
 70
     1
102
RTVSPost2010Prop41ColorIndex
 90
       18
102
RTVSPost2010Prop41ColorRGB
 90
        0
102
RTVSPost2010PropOp41
 70
     1
102
RTVSPost2010Prop42
 90
       50
102
RTVSPost2010PropOp42
 70
     1
102
RTVSPost2010Prop43
 90
        3
102
RTVSPost2010PropOp43
 70
     1
102
RTVSPost2010Prop44ColorIndex
 90
        5
102
RTVSPost2010Prop44ColorRGB
 90
      255
102
RTVSPost2010PropOp44
 70
     1
102
RTVSPost2010Prop45
280
     0
102
RTVSPost2010PropOp45
 70
     1
102
RTVSPost2010Prop46
 90
       50
102
RTVSPost2010PropOp46
 70
     1
102
RTVSPost2010Prop47
 90
       50
102
RTVSPost2010PropOp47
 70
     1
102
RTVSPost2010Prop48
 90
       50
102
RTVSPost2010PropOp48
 70
     1
102
RTVSPost2010Prop49
280
     0
102
RTVSPost2010PropOp49
 70
     1
102
RTVSPost2010Prop50
 90
       50
102
RTVSPost2010PropOp50
 70
     1
102
RTVSPost2010Prop51ColorIndex
 90
      256
102
RTVSPost2010Prop51ColorRGB
 90
-16777216
102
RTVSPost2010PropOp51
 70
     0
102
RTVSPost2010Prop52
140
1.0
102
RTVSPost2010PropOp52
 70
     0
102
RTVSPost2010Prop53
 90
        2
102
RTVSPost2010PropOp53
 70
     1
102
RTVSPost2010Prop54
  1
strokes_ogs.tif
102
RTVSPost2010PropOp54
 70
     1
102
RTVSPost2010Prop55
280
     0
102
RTVSPost2010PropOp55
 70
     1
102
RTVSPost2010Prop56
140
1.0
102
RTVSPost2010PropOp56
 70
     1
102
RTVSPost2010Prop57
140
1.0
102
RTVSPost2010PropOp57
 70
     1
  0
XRECORD
  5
308
102
{ACAD_REACTORS
330
307
102
}
330
307
100
AcDbXrecord
280
     1
102
RTVSPost2010Prop28
280
     0
102
RTVSPost2010PropOp28
 70
     1
102
RTVSPost2010Prop29
280
     1
102
RTVSPost2010PropOp29
 70
     1
102
RTVSPost2010Prop30
280
     1
102
RTVSPost2010PropOp30
 70
     1
102
RTVSPost2010Prop31
280
     0
102
RTVSPost2010PropOp31
 70
     1
102
RTVSPost2010Prop32
280
     0
102
RTVSPost2010PropOp32
 70
     1
102
RTVSPost2010Prop33
280
     0
102
RTVSPost2010PropOp33
 70
     1
102
RTVSPost2010Prop34
280
     0
102
RTVSPost2010PropOp34
 70
     1
102
RTVSPost2010Prop35
280
     0
102
RTVSPost2010PropOp35
 70
     1
102
RTVSPost2010Prop36
280
     0
102
RTVSPost2010PropOp36
 70
     1
102
RTVSPost2010Prop37
 90
       50
102
RTVSPost2010PropOp37
 70
     1
102
RTVSPost2010Prop38
140
0.0
102
RTVSPost2010PropOp38
 70
     1
102
RTVSPost2010Prop39
140
1.0
102
RTVSPost2010PropOp39
 70
     1
102
RTVSPost2010Prop40
 90
        0
102
RTVSPost2010PropOp40
 70
     1
102
RTVSPost2010Prop41ColorIndex
 90
       18
102
RTVSPost2010Prop41ColorRGB
 90
        0
102
RTVSPost2010PropOp41
 70
     1
102
RTVSPost2010Prop42
 90
       50
102
RTVSPost2010PropOp42
 70
     1
102
RTVSPost2010Prop43
 90
        3
102
RTVSPost2010PropOp43
 70
     1
102
RTVSPost2010Prop44ColorIndex
 90
        5
102
RTVSPost2010Prop44ColorRGB
 90
      255
102
RTVSPost2010PropOp44
 70
     1
102
RTVSPost2010Prop45
280
     0
102
RTVSPost2010PropOp45
 70
     1
102
RTVSPost2010Prop46
 90
       50
102
RTVSPost2010PropOp46
 70
     1
102
RTVSPost2010Prop47
 90
       50
102
RTVSPost2010PropOp47
 70
     1
102
RTVSPost2010Prop48
 90
       50
102
RTVSPost2010PropOp48
 70
     1
102
RTVSPost2010Prop49
280
     0
102
RTVSPost2010PropOp49
 70
     1
102
RTVSPost2010Prop50
 90
       50
102
RTVSPost2010PropOp50
 70
     1
102
RTVSPost2010Prop51ColorIndex
 90
      256
102
RTVSPost2010Prop51ColorRGB
 90
-16777216
102
RTVSPost2010PropOp51
 70
     0
102
RTVSPost2010Prop52
140
1.0
102
RTVSPost2010PropOp52
 70
     0
102
RTVSPost2010Prop53
 90
        2
102
RTVSPost2010PropOp53
 70
     1
102
RTVSPost2010Prop54
  1
strokes_ogs.tif
102
RTVSPost2010PropOp54
 70
     1
102
RTVSPost2010Prop55
280
     0
102
RTVSPost2010PropOp55
 70
     1
102
RTVSPost2010Prop56
140
1.0
102
RTVSPost2010PropOp56
 70
     1
102
RTVSPost2010Prop57
140
1.0
102
RTVSPost2010PropOp57
 70
     1
  0
XRECORD
  5
2FC
102
{ACAD_REACTORS
330
2FB
102
}
330
2FB
100
AcDbXrecord
280
     1
102
RTVSPost2010Prop28
280
     0
102
RTVSPost2010PropOp28
 70
     1
102
RTVSPost2010Prop29
280
     1
102
RTVSPost2010PropOp29
 70
     1
102
RTVSPost2010Prop30
280
     1
102
RTVSPost2010PropOp30
 70
     1
102
RTVSPost2010Prop31
280
     0
102
RTVSPost2010PropOp31
 70
     1
102
RTVSPost2010Prop32
280
     0
102
RTVSPost2010PropOp32
 70
     1
102
RTVSPost2010Prop33
280
     0
102
RTVSPost2010PropOp33
 70
     1
102
RTVSPost2010Prop34
280
     0
102
RTVSPost2010PropOp34
 70
     1
102
RTVSPost2010Prop35
280
     0
102
RTVSPost2010PropOp35
 70
     1
102
RTVSPost2010Prop36
280
     0
102
RTVSPost2010PropOp36
 70
     1
102
RTVSPost2010Prop37
 90
       50
102
RTVSPost2010PropOp37
 70
     1
102
RTVSPost2010Prop38
140
0.0
102
RTVSPost2010PropOp38
 70
     1
102
RTVSPost2010Prop39
140
1.0
102
RTVSPost2010PropOp39
 70
     1
102
RTVSPost2010Prop40
 90
        0
102
RTVSPost2010PropOp40
 70
     1
102
RTVSPost2010Prop41ColorIndex
 90
       18
102
RTVSPost2010Prop41ColorRGB
 90
        0
102
RTVSPost2010PropOp41
 70
     1
102
RTVSPost2010Prop42
 90
       50
102
RTVSPost2010PropOp42
 70
     1
102
RTVSPost2010Prop43
 90
        3
102
RTVSPost2010PropOp43
 70
     1
102
RTVSPost2010Prop44ColorIndex
 90
        5
102
RTVSPost2010Prop44ColorRGB
 90
      255
102
RTVSPost2010PropOp44
 70
     1
102
RTVSPost2010Prop45
280
     0
102
RTVSPost2010PropOp45
 70
     1
102
RTVSPost2010Prop46
 90
       50
102
RTVSPost2010PropOp46
 70
     1
102
RTVSPost2010Prop47
 90
       50
102
RTVSPost2010PropOp47
 70
     1
102
RTVSPost2010Prop48
 90
       50
102
RTVSPost2010PropOp48
 70
     1
102
RTVSPost2010Prop49
280
     0
102
RTVSPost2010PropOp49
 70
     1
102
RTVSPost2010Prop50
 90
       50
102
RTVSPost2010PropOp50
 70
     1
102
RTVSPost2010Prop51ColorIndex
 90
      256
102
RTVSPost2010Prop51ColorRGB
 90
-16777216
102
RTVSPost2010PropOp51
 70
     0
102
RTVSPost2010Prop52
140
1.0
102
RTVSPost2010PropOp52
 70
     0
102
RTVSPost2010Prop53
 90
        2
102
RTVSPost2010PropOp53
 70
     1
102
RTVSPost2010Prop54
  1
strokes_ogs.tif
102
RTVSPost2010PropOp54
 70
     1
102
RTVSPost2010Prop55
280
     0
102
RTVSPost2010PropOp55
 70
     1
102
RTVSPost2010Prop56
140
1.0
102
RTVSPost2010PropOp56
 70
     1
102
RTVSPost2010Prop57
140
1.0
102
RTVSPost2010PropOp57
 70
     1
  0
XRECORD
  5
314
102
{ACAD_REACTORS
330
313
102
}
330
313
100
AcDbXrecord
280
     1
102
RTVSPost2010Prop28
280
     0
102
RTVSPost2010PropOp28
 70
     1
102
RTVSPost2010Prop29
280
     1
102
RTVSPost2010PropOp29
 70
     1
102
RTVSPost2010Prop30
280
     1
102
RTVSPost2010PropOp30
 70
     1
102
RTVSPost2010Prop31
280
     0
102
RTVSPost2010PropOp31
 70
     1
102
RTVSPost2010Prop32
280
     0
102
RTVSPost2010PropOp32
 70
     1
102
RTVSPost2010Prop33
280
     0
102
RTVSPost2010PropOp33
 70
     1
102
RTVSPost2010Prop34
280
     0
102
RTVSPost2010PropOp34
 70
     1
102
RTVSPost2010Prop35
280
     0
102
RTVSPost2010PropOp35
 70
     1
102
RTVSPost2010Prop36
280
     0
102
RTVSPost2010PropOp36
 70
     1
102
RTVSPost2010Prop37
 90
       50
102
RTVSPost2010PropOp37
 70
     1
102
RTVSPost2010Prop38
140
0.0
102
RTVSPost2010PropOp38
 70
     1
102
RTVSPost2010Prop39
140
1.0
102
RTVSPost2010PropOp39
 70
     1
102
RTVSPost2010Prop40
 90
        0
102
RTVSPost2010PropOp40
 70
     1
102
RTVSPost2010Prop41ColorIndex
 90
       18
102
RTVSPost2010Prop41ColorRGB
 90
        0
102
RTVSPost2010PropOp41
 70
     1
102
RTVSPost2010Prop42
 90
       50
102
RTVSPost2010PropOp42
 70
     1
102
RTVSPost2010Prop43
 90
        3
102
RTVSPost2010PropOp43
 70
     1
102
RTVSPost2010Prop44ColorIndex
 90
        5
102
RTVSPost2010Prop44ColorRGB
 90
      255
102
RTVSPost2010PropOp44
 70
     1
102
RTVSPost2010Prop45
280
     0
102
RTVSPost2010PropOp45
 70
     1
102
RTVSPost2010Prop46
 90
       50
102
RTVSPost2010PropOp46
 70
     1
102
RTVSPost2010Prop47
 90
       50
102
RTVSPost2010PropOp47
 70
     1
102
RTVSPost2010Prop48
 90
       50
102
RTVSPost2010PropOp48
 70
     1
102
RTVSPost2010Prop49
280
     0
102
RTVSPost2010PropOp49
 70
     1
102
RTVSPost2010Prop50
 90
       50
102
RTVSPost2010PropOp50
 70
     1
102
RTVSPost2010Prop51ColorIndex
 90
      256
102
RTVSPost2010Prop51ColorRGB
 90
-16777216
102
RTVSPost2010PropOp51
 70
     0
102
RTVSPost2010Prop52
140
1.0
102
RTVSPost2010PropOp52
 70
     0
102
RTVSPost2010Prop53
 90
        2
102
RTVSPost2010PropOp53
 70
     1
102
RTVSPost2010Prop54
  1
strokes_ogs.tif
102
RTVSPost2010PropOp54
 70
     1
102
RTVSPost2010Prop55
280
     0
102
RTVSPost2010PropOp55
 70
     1
102
RTVSPost2010Prop56
140
1.0
102
RTVSPost2010PropOp56
 70
     1
102
RTVSPost2010Prop57
140
1.0
102
RTVSPost2010PropOp57
 70
     1
  0
ENDSEC
  0
EOF
